Tag: swingin

Swingin The Blues Tabs – Lonnie Johnson

 Lonnie Johnson - Swingin' The Blues
Tab By Aldoalain


|-----3-6-6-5-5-3-3-------------------6\5-3-----------------------------------------|
|-3-5---------------6-6-3-3-----------6\5---6br--3--------------------1-------------|
|---------------------------5-0-3h4----------------5---3-4------------0-------------|
|-----------------------------------5----------------5-----5--5-5\3p0-2-------------|
|---------------------------------------------------------------------3-------------|
|-----------------------------------------------------------------------------------|

|-------3-6-6-3-----------3-6-5-3---0-6p5p3-----------------------------------------|
|-1-3/5-------3---0-1-3/5---------5---------6p5p3-----------------------0-----------|
|---------------0-1-------------------------------5p3p0-3-4-------------0-----------|
|---------------0-2-----------------------------------------5-0-------0-------------|
|-----------------3---------------------------------------------5-5/7---------------|
|-----------------------------------------------------------------------------------|

|--7-------------------------------------------3-6-6p3-3---------6-6p3-3------------|
|--5---5-5-5-6---6-6-6---6-5-3---------3-----------------6-6-3-----------6-6-3------|
|--6---6-6-6-6---6-6-6-5-------5---3-4-----------------------------------------4----|
|--5---5-5-5-5---5-5-5-4---------5-----------------------------5--------------------|
|------------6---6-6-6-x-----------------5-5-5--------------------------------------|
|-5----5-5-5-----------5------------------------------------------------------------|

|-6-6p3-3--------------------------------------3-6-5-5p3----------3-6-5-3---0-------|
|---------6-6-3-3----------------------1-1-3/5-----------0-1-1-3/5--------5---------|
|-----------------5-0-3-4-5------------0-----------------0-0------------------------|
|---------------------------5--5-5\3p0-2-------------------2------------------------|
|--------------------------------------3-------------------3------------------------|
|-----------------------------------------------------------------------------------|

|-6p5p3-----------------------------------7-7---------6-----------3-5-3--3----------|
|-------6p5p3-------------3-----------0---5---8-8-5---5-8-8-5-3/5----------6p5p3----|
|-------------5p3p0-3h4h5-------------0---6-----------6-----------------------------|
|-----------------------------------0-----5-----------------------------------------|
|---------------------------5-5-5/7-----------------0-------------------------------|
|---------------------------------------5-------------------------------------------|

|-----------------------------------------------------------------------------6b----|
|-------------------5-------------------------------------------------------3-------|
|-5p3p0-3-4-----6-5-5-----4-5-6-7-----4-5-6-7-----4-5-6-7---7---6---5---3h4---------|
|-----------5-x-5-4-4-0-5---------0-5---------0-5---------0---0---0---0-------------|
|-------------x-x-x-----------------------------------------------------------------|
|---------------6-5-----------------------------------------------------------------|

|-3-------------------3-6-6-3-----------3-6-5-3---0-6p5p3-------------6b-3----------|
|---3---------1-1-3/5---------0-1-1-3/5---------5---------6p5p3-----3------3-------3|
|-----3-4---0-0---------------0-0-------------------------------3h4----------5-3h4--|
|---------5-0-2-----------------2---------------------------------------------------|
|-------------3-----------------3---------------------------------------------------|
|-----------------------------------------------------------------------------------|

|-------7--7-7--7-7-7-----3--6-5-3---------------3-0---3-3--0--3--------------------|
|-------5--5-5--5-5-5-3-5----------6p5-3-------------3-4-4--0--3---4---3----3-------|
|-------6----6----6----------------------5-0-3-4-------5-------4-0-5-4-4--4-4-------|
|-----x-5----5----5-----------------------------------------

Double Shot Of My Babys Love chords – The Swingin Medallions

 G Em G Em G Em G D       [Organ]

 G Em 
Woke up this morning, my head was so bad..
     C D 
the worst hangover that I ever had.
 G Em C 
What happened to me last night, that girl of mine, 
     D 
she loved me so right (yeah!) (oh, oh.)
     G Em 
She loved me so long and she loved me so hard,
   C D 
I finally passed out in her front yard.(whoo!)
    G Em 
It wasn't wine that I had too much of,
          C D G 
it was a double shot of my baby's love.

 G Em G 
Double shot of my baby's love, yeah, yeah, yeah.
 G Em G 
Double shot of my baby's love, yeah, yeah, yeah.
 G Em C 
A potion that I had too much of..it was a double 
 D G 
shot of my baby's love.


 G Em G Em G Em G D      [Organ]

         
 G Em 
It was such a thrill it was hurtin' me, (ooh!)
 C D 
I was sufferin' in ecstasy.
 G Em 
She had me turnin' flips and shoutin' out loud 
   C D 
A sip of her love and I was walkin' on a cloud.
 G Em 
One night a week is plenty enough..
        C                             
it's a good thing for me 
                   D 
they don't bottle that stuff [pop!]
       G Em 
Well, my heart begins to fly like a dove..
        C D G 
when I take a double shot of my baby's love.

 G Em G 
Double shot of my baby's love, yeah, yeah, yeah.
 G Em G 
Double shot of my baby's love, yeah, yeah, yeah.
 G Em C 
A potion that I had too much of..it was a double 
 D G 
shot of my baby's love.

 G Em G Em G Em G D         [Organ]    

[Fade]

Swingin Party chords – Lorde V3

 B 
Bring your own lampshade, somewhere there's a party
 C#m 
Here it's never ending, can't remember when it started
 B 
Pass around the lampshade, there'll be plenty enough room in jail
    C#m 
If being wrong's a crime, I'm serving forever
    E B 
If being strong's your kind, then I need help here with this feather
    G#m E 
If being afraid is a crime, we hang side by side
        C#m E B 
At the swingin' party down the line
 B 
Pound the prairie pavement, losing proposition
 C#m 
Quitting school and going to work and never going fishing
 B 
Water all around, I never learned how to swim now
   
    C#m 
If being wrong's a crime, I'm serving forever
    E B 
If being strong's your kind, then I need help here with this feather
    G#m E 
If being afraid is a crime, we hang side by side
        C#m E B 
At the swingin' party down the line
        C#m E B 
At the swingin' party down the line

 B 
Bring your own lampshade, somewhere there's a party
 C#m 
Here it's never ending, can't remember when it started
 B 
Pass around the lampshade, there'll be plenty enough room in jail
    C#m 
If being wrong's a crime, I'm serving forever
    E 
If being strong is what you want, then I need help here with this feather
    G#m E 
If being afraid is a crime, we hang side by side
        C#m E B 
At the swingin' party down the line
        C#m E B 
At the swingin' party down the line