Tag: system

The System Only Dreams In Total Darkness Chords version 3 by The National

This works quite well without the capo, but if you want to play along the original record you'll need one
on the 8th fret. Have fun!

[Verse 1]
        Am                   D
Maybe I listen more than you think
      Em                 D
I can tell that somebody sold you
              Am               D
We said we’ve never let anyone in
             Em          D
We said we’d only die of lonely secrets

[Chorus]
C          D                G
The system only dreams in total darkness
            Am
Why are you hiding from me?
C          D                 G
We’re in a different kind of thing now
                 Am
All night you’re talking to God

[Verse 2]
               Am                  D
I thought that this would all work out after a while
           Em                         D
Now you’re saying that I’m asking for too much attention
        Am                    D
Also no other faith is light enough for this place
   Em                    D
We said we’d only die of lonely secrets

[Chorus]
C          D                G
The system only dreams in total darkness
            Am
Why are you hiding from me?
C          D                 G
We’re in a different kind of thing now
                 Am
All night you’re talking to God

[Bridge]
C          D
I cannot explain it
G          Am
Any other, any other way
C          D
I cannot explain it
G          Am
Any other, any other way

[Chorus]
C          D                G
The system only dreams in total darkness
            Am
Why are you hiding from me?
C          D                 G
We’re in a different kind of thing now
                 Am
All night you’re talking to God

[Outro]
C          D
I cannot explain it
G          Am
Any other, any other way
C          D
I cannot explain it
G          Am
Any other, any other way
C          D
I cannot explain it
G          Am
Any other, any other way
C          D
I cannot explain it
G          Am
Any other, any other way

The System Only Dreams In Total Darkness chords by The National

Capo 1st fret

[Intro]

Em - G - F#m - G
Em

[Verse 1]
        Em                    A
Maybe I listen more than you think
            Bm             A
and I can tell that somebody sold you
        Em                     A
We said we’ve never let anyone in
             Bm           A
We said we’d only die of lonely secrets

[Chorus]
G               A                D
The system only dreams in total darkness
            G
Why are you hiding from me?
           A                 D
We’re in a different kind of thing now
                  G
All night you’re talking to God

Em

[Verse 2]
Em                              A
I thought that this would all work out after a while
            Bm             A
Now you’re saying that I’m asking for too much attention
Em                              A
Also no other faith is light enough for this place
            Bm             A
We said we’d only die of lonely secrets

[Chorus]
G               A                D
The system only dreams in total darkness
            G
Why are you hiding from me?
           A                 D
We’re in a different kind of thing now
                  G
All night you’re talking to God

Em

[Bridge]
G             A
I can’t explain it
D          G
Any other, any other way
G             A
I can’t explain it
D          G
Any other, any other way

Em

[Solo]

Em - A - Bm - A (x2)
G - A - D - G (x2)

G - A - D - G

[Chorus]
G               A                D
The system only dreams in total darkness
            G
Why are you hiding from me?
           A                 D
We’re in a different kind of thing now
                  G
All night you’re talking to God

[Outro]
G             A
I can’t explain it
D          G
Any other, any other way
G             A
I can’t explain it
D          G
Any other, any other way
G             A
I can’t explain it
D          G
Any other, any other way
G             A
I can’t explain it
D          G
Any other, any other way

Em

16 chords – Sneaky Sound System

 Intro:  Bm G A D 

Verse 1:
  Bm G 
Tell me if you want to say something,
              A D 
Because I'm sitting here looking for clues.
 Bm G A 
16 days I've been turning upside down,
              D 
Thinking of you.
  Bm G 
Don't know if it was your intention,
          A D 
But I'm lost, and feeling confused.
 Bm G A D             
16 days since you left my life I'm still looking for you.

Pre-chorus:
         G A F# Bm 
I feel high...  just being with you.
         G A F#                 
Now I'm low... don't know where to go.

Chorus:
 Bm G 
I'm just like you,
              A   
Don't know what to do.
      D A Bm 
I'm caught here in the middle of a life,
          G A 
I can't live but I want to.
 Bm G 
I'm just like you,
              A   
Don't know what to do.
      D A Bm 
I'm caught here in the middle of a life,
          G A 
I can't live but I want to.
  D A 
Dont know how to do it though.

Verse 2:
       Bm G 
Dont want to be caught in the middle,
             A D 
But I dont want to be left on my own.
 Bm G A D 
16 weeks of emotional static, it makes me feel like Im hollow.
    Bm G 
I just want to get your attention,
         A D 
But I know that you're looking away
 Bm G A D 
16 weeks since you left my life I'm still looking for you

Pre-chorus:
         G A F# Bm 
I feel high...  just being with you.
         G A F#                 
Now I'm low... don't know where to go.

Chorus:
 Bm G 
I'm just like you,
              A   
Don't know what to do.
      D A Bm 
I'm caught here in the middle of a life,
          G A 
I can't live but I want to.
 Bm G 
I'm just like you,
              A   
Don't know what to do.
      D A Bm 
I'm caught here in the middle of a life,
          G A 
I can't live but I want to.
  D A 
Dont know how to do it though.

Bridge:
    G A F# Bm 
I wonder, wonder, wonder what you're doing, where you are.
    G A F#  
I wonder, wonder, wonder what we could have been.
    G A F# Bm 
I wonder, wonder, wonder what you're doing, where you are.
    G A F#  
I wonder, wonder, wonder what we could have been.

Outta My System chords – Simple Plan

 chords - AdamD

Capo 1st fret


[Intro]
 E B F#m A 


[Verse]
            E 
I try to brush it off
                                 A C#m B 
Keep calm and collected but it just won't work
                 E 
They tell me "Read a book,
                                       A C#m B 
Learn to cook, anything to keep your mind off her!"


[Pre-chorus]
              A 
And now I'm so-o
                        B 
Tired of feeling so low-ow
                      A 
Seven weeks in a row-ow, I don't wanna hear about
  B 
Don't wanna think about you


[Chorus]
          E                    
I wanna make out with the perfect stranger
  B      
Get loud need a mind eraser
  F#m                        
Drink up tonight I'm on a mission
 A 
To get you outta my system
   E  
Downtown I'll be up all night
  B 
Get lost in the flash of lights
  F#m 
Drink up tonight I'm on a mission
  A 
To get you outta my system


[Verse]
I try to be mature,
Stay polite but I'm really thinking what's it worth
When deep inside of me
I can't breathe I'm a victim of a love sick curse


[Pre-chorus]

[Chorus]


[Bridge]
 E 
Outta my system
 A 
Outta my system
 C#m B  
Outta my system
Outta my system
       E 
It's been so long since I've been myself
    A 
Talking like, walking like someone else
  C#m 
Feels so good to get back to me
  B 
Rid myself of this misery
  E 
Now I'm here coming back to life
    A 
Turning my wrongs all back to right
   C#m 
I was way down, I was locked up
          B 
Now I'm free


[Chorus]

Feel Good Tabs by System Of A Down

 System of a Down
Feel Good
Drop B - as weird as it may seem


Guitar starts 0:32
Chorus A
C#|----------------------|
G#|----------------------|
E |----101010-----9-9----|
B |----x-x-x------x-x----| x4
F#|--0~8-8-8-0~-0~7-7-0~-|
B |--0~------0~-0~----0~-|


Verse  (Use fingers)
C#|----------------------|
G#|----------------------|
E |--9---9-8---9---9p8---|
B |--9---9-8---9---9p8---| x4
F#|----------------------|
B |----------------------|

Chorus A (x4)

Chorus B
1
C#|----------------------|------------------------------|
G#|----------------------|------------------------------|
E |----------------------|------------------------------|
B |-0~--0~6~--6~5~---6~--|-0~--0~6~--6~5~---6~----------| x2
F#|-0~--0~6~--6~5~---6~--|-0~--0~6~--6~5~---6~----------|
B |-0~--0~6~--6~5~---6~--|-0~--0~6~--6~5~---6~--005566--|
2
C#|----------------------|
G#|-15~---13~---12~--13~-|
E |-x-----x-----x----x---|
B |-12~---10~---9~---10~-| x4
F#|----------------------|
B |----------------------|

Verse (x3)


Bridge
C#|----------------------|
G#|----------------------|
E |----101010-----9-9----|
B |----x-x-x------x-x----| x4
F#|--0~8-8-8-0~-0~7-7-0~-|
B |--0~------0~-0~----0~-|

Then
1
C#|----------------------|
G#|----------------------|
E |----101010-----9-9----|
B |--0-x-x-x-0--0-x-x-0--| x4
F#|--0-8-8-8-0--0-7-7-0--|
B |--0-------0--0-----0--|
2
C#|----------------------|
G#|----------------------|
E |----------------------|
B |--12~~nearlly A.H-----|
F#|---repeat-------------|
B |----------------------|



Verse (x3.5)
Chorus A (x4) - Rhythmic pattern different
Chorus A (x4) - Normal
Chorus B (x3) - 0 0 6 at end (with octaves)

Ending Chorus A
1
C#|----------------------|
G#|----------------------|
E |----101010-----9-9----|
B |----x-x-x------x-x----| x4
F#|--0~8-8-8-0~-0~7-7-0~-|
B |--0~------0~-0~----0~-|
2 last repeat
C#|------------------------|
G#|------------------------|
E |----141414------1313----|
B |----x-x-x-------x-x-----|
F#|--0~121212-0~-0~1111-0~-|
B |--0~-------0~-0~-----0~-|
3
C#|----------------------|
G#|--15~~repeat----------|
E |----------------------|
B |----------------------|
F#|----------------------|
B |----------------------|


Punk
Bitch
Motherfucking Done!

System – Dezerter chords

motyw 1                    motyw 2
E|-------------------------|----------------------|
H|-------------------------|----------------------|
G|---------------------5-5-|-------------5-5------|
D|-3-3-3-\-5-5--3-3-3--5-5-|-5-5--3-3----5-5--3-3-|
A|-3-3-3-\-5-5--3-3-3--3-3-|-5-5--3-3----3-3--3-3-|
E|-1-1-1-\-3-3--1-1-1------|-3-3--1-1---------1-1-|


solo (mniej wiecej)
E|-------------------------------------------------|
H|-------------------------------------------------|
G|-----5-7--8-8-7------5-7--9-8-7------5-7--10-9-8-|
D|-5-7-------------5-7-------------5-7-------------|
A|-------------------------------------------------|
E|-------------------------------------------------|

E|---------------------------------------------------|
H|---------------------------------------------------|
G|-6-6-6-6--7-7-7-7------5-7--9-8-7------5-7--10-9-8-|
D|-6-6-6-6--7-7-7-7--5-7-------------5-7-------------|
A|---------------------------------------------------|
E|---------------------------------------------------|