Tag: tabs

Time To Kill Tabs – Overkill Vsion 1

 OVERKILL - TIME TO KILL
(The Years Of Decay, 1989)

Key
= after note = vibrato
^ after note = heavy vibrato
\\ = slide down
/ = slide up
+ = tap
h = hammer
p = pull
n = natural harmonic
s = pinching harmonic (squeal)
* = tremolo pick
t = trill
b = bend
|-3-| = triplet

n number above the tab = play the first part then the first finishing part
                         play the first part a second time and then play the second finishing part
                         etc.

Riff 1

E ------------------------------------------------------------------
B ------------------------------------------------------------------
G ------------------------------------------------------------------
D -2---------------5---------------5---------5---------2------------
A -2---------------5---------------5---------5---------2------------
E -0---------0-2-0-3---------0-2-0-3---0-2-0-3---0-2-3-0------------

Riff 1A

E --------------------------------------------------------------------------
B --------------------------------------------------------------------------
G --------------------------------------------------------------------------
D -9---------9-11-9-12---------9-11-9-12---9-11-9-12---9-11-12-9------------
A --------------------------------------------------------------------------
E --------------------------------------------------------------------------

Riff 1B

E -----------------------------------------------------
B -----------------------------------------------------
G -----------------------------------------------------
D -2---------------5---------------5---------5---------
A -2---------------5---------------5---------5---------
E -0---------0-2-0-3---------0-2-0-3---0-2-0-3---0-2-3-

Riff 1C

E -------------------------------------------------------------
B -------------------------------------------------------------
G -------------------------------------------------------------
D -9---------9-11-9-12---------9-11-9-12---9-11-9-12---9-11-12-
A -------------------------------------------------------------
E -------------------------------------------------------------

Riff 1D

E ---------------------------------------------------------
B -15b17------------18b20------------18b20------18b20------
G ---------------------------------------------------------
D ---------------------------------------------------------
A ---------------------------------------------------------
E ---------------------------------------------------------

Riff 2

E ---------------------------------------------------------------------------------
B ---------------------------------------------------------------------------------
G ---------------------------------------------------------------------------------
D -2---------5---------3---------6---5---2---------5---------3---------5-----5-----
A -2---------5---------3---------6---5---2---------5---------3---------5-----5-----
E -0---0-0-0-3---0-0-0-1---0-0-0-4---3---0---0-0-0-3---0-0-0-1---0-0-0-3-0-0-3-0-0-

Riff 2A

E ------------------------------
B ------------------------------
G ------------------------------
D ----2---2---2---2---2---2---2-
A ----2---2---2---2---2---2---2-
E ----0---0---0---0---0---0---0-

Riff 2B

E -----------------------------------------------------------------------------------------------------------
B -----------------------------------------------------------------------------------------------------------
G -----------------------------------------------------------------------------------------------------------
D -2---------5---------3---------6---5---2---------5---------3---------5-----5-----2---------5-----5-----2---
A -2---------5---------3---------6---5---2---------5---------3---------5-----5-----2---------5-----5-----2---
E -0---0-0-0-3---0-0-0-1---0-0-0-4---3---0---0-0-0-3---0-0-0-1---0-0-0-3-0-0-3-0-0-0---0-0-0-3-0-0-3-0-0-0---

E -------------------
B -------------------
G -------------------
D -------5-----5-----
A -------5-----5-----
E -0-0-0-3-

I Know Im A Wolf Tabs – Young Heretics

 I Know I'm A Wolf by Young Heretics

Standard tuning
No capo


Basic shapes used during part 1 picking pattern: 
e|-0----0--------------------------------------------------------|
B|-0----0--------------------------------------------------------|
G|-2----2--------------------------------------------------------|
D|-2----0--------------------------------------------------------|
A|-3----3--------------------------------------------------------|
E|---x4----------------------------------------------------------|
(if you use your index finger on the D string, you can use it to fret the B string the last time through)

Chords used during part 2 (strumming): 
    C  D  Asus2  B7
e|--0--2--0------2------------------------------------------------|
B|--1--3--0------0------------------------------------------------|
G|--0--2--2------2------------------------------------------------|
D|--2--0--2------1------------------------------------------------|
A|--3--x--0------2------------------------------------------------|
E|--x--x--x------x------------------------------------------------|


Part 1 Riff:
   Em                      C           D      
e|---------------------------------------------------------------|
B|-----0-----0-----0-----0-----0-----0-----0---1-0---------------|
G|---2-----2-----2-----2-----2-----2-----2-----------------------|
D|-2-----2-----2-----2-----------------0-----0-------------------|
A|-------------------------3-----3-------------------------------|
E|---------------------------------------------------------------|
(play once for each line)


Dear rabbit my legs are getting weak chasing you
The snow fields wouldn't seem so big if you knew

Part 2: (play chord and let ring)
          C
That this blood on my teeth
      D
It is far beyond dry
         Asus2
And I've captured you once
      B7
But I wasn't quite right

       C
So I'm telling you 
     Asus2              (begin riff again)
That you'll be safe with me

Part 1 riff over:
Rabbit my claws are dull now so don't be afraid
I could keep you warm as long as you can just try to be brave

Part 2: (strum chords)
      C
Yes I know I'm a wolf
         D
And I've been known to bite
        Asus2
But the rest of my pack
       B7
I have left them behind
       C
And my teeth may be sharp
         D
And I've been raised to kill
        Asus2
But the thought of fresh meat
      B7
It is making me ill
       C
So I'm telling you
     D     (slow down)
That you'll be safe with . . .

Part 1 riff x4 over:
Me . . .
Ooh . . .
(the last time through the riff changes a little and breaks off abruptly)

Part 1 riff over:
So rabbit please stop looking the other way

Modified ending for Part 1 riff:
e|-------------------------------------------------------0-------|
B|-----0-----0-----0-----0-----0-----0-----0-----0-----0---------|
G|---2-----2-----2-----2-----2-----2-----2-----2-----2-----------|
D|-2-----2-----2-----2-----------------0-----0-----2-------------|
A|-------------------------3-----3-------------------------------|
E|---------------------------------------------------------------|
It's cold out there so why not stay here under my tail

Iron Moon Tabs – Chelsea Wolfe

 Iron Moon - Chelsea Wolfe

the song is played in drop low E, but this is in drop A, for easier tuning.



intro

rythm
-----------------------------------------------
-----------------------------------------------
-----------------------------------------------
-5----5-5-5-5----5-5-5-0----0-0-0-0----0-0///--
-5----5-5-5-5----5-5-5-0----0-0-0-0----0-0///--
-5----5-5-5-7----7-7-7-0----0-0-0-0----0-0///-- x4


lead
--------------
-3------------
-5bbb7--------
--------------
--------------
-------------- x4


verse (finger picking)

--------------------------------------------
--------------------------------------------
-10---------9-----------9----------7--------
-----10---------10---------10---------7-----
-12-----12--12------12--10-----10--9-----9--
-------------------------------------------- x8

second guitar enters after 3 times

-----------------------------------------------
-10----------10---------12----------10---------
-----10----------9----------12----------11-----
-10------10--10-----10--12------12--12------12-
-----------------------------------------------
----------------------------------------------- x5


chorus

-----------------------------
-----------------------------
-----------------------------
-7~---10~---9~--9-4-4-4------
-3~---7~----5~--5-0-0-0------
-3~---7~----5~--5-0-0-0------ x4


intro-theme

verse

chorus x2 (second time hit each 8th)

verse

intro-theme x8

Natures Wrath Tabs – The Budos Band

 -------------------------------------------------------------------------------
                    Natures Wrath - Budos Band  (Budos Band III)
-------------------------------------------------------------------------------
: ignaciomendez
 ignacio.mendeznunez

Tuning: Standard

 Horn Intro 
e|---------------------------------------------------------------------------|
B|---------------------------------------------------------------------------|
G|---------------------------------------------------------------------------|
D|---3h4p3h4p3h4p3h4p3-------------------------------------------------------|
A|---------------------------------------------------------------------------|
E|---------------------------------------------------------------------------|

Main Riff
e|---------------------------------------------------------------------------|
B|---------------------------------------------------------------------------|
G|---------------------------------------------------------------------------|
D|-----------------------8---------------------------------------------------|
A|-----------8-9-----8-9---9------8-9-8--------------------------------------|
E|--6---8-9---------------------9----------9-8---7---------------------------|

Riff (Chorus) @0:53
e|---------------------------------------------------------------------------|
B|---------------------------------------------------------------------------|
G|---------------------------------10----------------------------------------|
D|--------8---/10---8--10--11---------11-10-----11--10-----------------------|
A|-----8--------------------------------------------------8------------------|
E|--6---------------------------------------------------------6--------------|

e|---------------------------------------------------------------------------|
B|---------------------------------------------------------------------------|
G|---------------------------------------------------------------------------|
D|---------------------------------------------------------------------------|
A|---------------------------------------------------------------------------|
E|---------------------------------------------------------------------------|



************************************

| /   slide up
| \   slide down
| h   hammer-on
| p   pull-off
| ~   vibrato
| +   harmonic
| x   Mute note
| b   Bend
| pb  Pre-bend
| br  Bend release
| pbr Pre-bend release
| brb Bend release bend

************************************

Brittle Boned Tabs – Julien Baker

 Intro & verse


e---------------------------------------------------------------------------------------------------------------
b---------------------------------------------------------------------------------------------------------------
g---------------------------------------------------------------------------------------------------------------
d--------2----------2----------------3------------3---------------2----------2--------------2-----------2-------
a--3--3----3--3--3-----3------5--5------5--5--5------5------0--0----0--0--0-----0-------------------------------
E------------------------------------------------------------------------------------1--1------1--1--1------1---
              C                         D                         A                          F

"This will be quick...."


e---------------------------------------------------------------------------------------------------------------
b---------------------------------------------------------------------------------------------------------------
g---------------------------------------------------------------------------------------------------------------
d-------------2------------------2---------------2------------2-------------------------------------------------
a-----0---0------0------3---3--------3-------------------------------------------------------------------------
E-----------------------------------------1--1------1--1--1---------1------------------------------------------
           A                     C                 F                           X6

 "Pulls is slow..."

Back to Verse, You can strum the notes as power chords as the song builds up.



"Cause I'm so good at hurting myself"

e---------------------------------------------------------------------------------------------------------------
b---------------------------------------------------------------------------------------------------------------
g---------------------------------------------------------------------------------------------------------------
d-------------2------------------2---------------2------------2-------------------------------------------------
a-----0---0------0------3---3--------3-------------------------------------------------------------------------
E-----------------------------------------1--1------1--1--1---------1------------------------------------------


Enjoy :)

Murderer Of Blue Skies Tabs – Chris Cornell

 -------------------------------------------------------------------------------
                     Murderer of Blue Skies - Chris Cornell
-------------------------------------------------------------------------------

Tuning: Standard (EADGBe)

 | 1 + 2 + 3 + 4 + | 1 + 2 + 3 + 4 + | 1 + 2 + 3 + 4 + | 1 + 2 + 3 + 4 + |

Introduction 
e|---3-----3-----3-|---3-----3-----3-|---3-----3-----3-|---3-----3-----3-|
B|-----3-----3-----|-----3-----3-----|-----3-----3-----|-----3-----3-----|
G|-----------------|-----------------|-----------------|-----------------|
D|-2-----2-----2---|-2-----2-----2---|-2-----2-----2---|-2-----2-----2---|
A|-----------------|-----------------|-----------------|-----------------|
E|-----------------|-----------------|-----------------|-----------------|


Verse I                                                                     
e|---3-----3-----3-|---3-----3-----3-|---3-----3-----3-|---3-----3-----3-|
B|-----3-----3-----|-----3-----3-----|-----3-----3-----|-----3-----3-----|
G|-----------------|-----------------|-0-----0---------|-----------------|  x3
D|-2-----2-----2---|-0-----0-----0---|-----------------|-----------------|
A|-----------------|-----------------|-------------2---|-3-----3-----3---|
E|-----------------|-----------------|-----------------|-----------------|

e|---3-----3-----3-|---3-----3-----3-|---3-----3-----3-|---3-----3-----3-|
B|-----3-----3-----|-----3-----3-----|-----5-----5-----|-----5-----5-----|
G|-----------------|-----------------|-------2---------|-------2---------|
D|-2-----2-----2---|-0-----0-----0---|-----------------|-----------------|
A|-----------------|-----------------|-4-----------4---|-4-----------4---|
E|-----------------|-----------------|-----------------|-----------------|


Chorus I                                                                      
e|---3-----3-----3-|---3-----3-----3-|---3-----3-----3-|---3-----3-----3-|
B|-----3-----3-----|-----3-----3-----|-----3-----3-----|-----3-----3-----|
G|-----------------|-----------------|-0-----0-----0---|-----------------|  x2
D|-----------------|-2-----2-----2---|-----------------|-4-----4-----4---|
A|-3-----3-----3---|-----------------|-----------------|-----------------|
E|-----------------|-----------------|-----------------|-----------------|

e|---3-----3-----3-|---3-----3-----3-|---3-----3-----3-|---3-----3-----3-|
B|-----3-----3-----|-----3-----3-----|-----3-----3-----|-----5-----5-----|
G|-----------------|-----------------|-0-----0-----0---|-------2---------|
D|-----------------|-2-----2-----2---|-----------------|-----------------|
A|-3-----3-----3---|-----------------|-----------------|-4-----------4---|
E|-----------------|-----------------|-----------------|-----------------|

e|---3-----3-----3-|---3-----3-----3-|---3-----3-----3-|
B|-----5-----5-----|-----3-----3-----|-----3-----3-----|
G|-------2---------|-----------------|-----------------|
D|-----------------|-----------------|-0-----0-----0---|
A|-4-----------4---|-3-----3-----3---|-----------------|
E|-----------------|-----------------|-----------------|


Interlude                                                                   
e|---3-----3-----3-|---3-----3-----3-|---3-----3-----3-|---3-----3-----3-|
B|-----3-----3-----|-----3-----3-----|-----3-----3-----|-----3-----3-----|
G|-----------------|-----------------|-0-----0---------|-----------------|  x2
D|-2-----2-----2---|-0-----0-----0---|-----------------|-----------------|
A|-----------------|-----------------|-------------2---|-3-----3-----3---|
E|-----------------|-----------------|-----------------|-----------------|


Verse II                                                                    
e|---3-----3-----3-|---3-----3-----3-|---3-----3-----3-|---3-----3-----3-|
B|-----3-----3-----|-----3-----3-----|-----3-----3-----|-----3-----3-----|
G|-----------------|-----------------|-0-----0---------|-----------------|  x3
D|-2-----2-----2---|-0-----0-----0---|------------

Hawaiian Roller Coaster Ride Tabs – Mark Kealii Hoomalu Vsion 1

 --------------------------------------------------------------------
                  Hawaiian Roller Coaster Ride 
by Mark Keali'i Ho'omalu and The Kamehameha Schools Children's Chorus
--------------------------------------------------------------------
From the Original Soundtrack of Lilo and Stitch

Listen it here : https://www.youtube.com/watch?v=L4X1_3VipWs

: Laviru93doodle aka Laviru K. 

Guitar and Ukulele tabs

these are the licks that are played through the song. 

---------------------Guitar Tabs--------------------------

LICK n°1:
e|-------------------5-------|----------------------5-------|
B|-6--6--6-----6--------8-6--|-6--6--6--6-----6--------8-6--|
G|----------7-----7----------|-------------7-----7----------|
D|---------------------------|------------------------------|
A|---------------------------|------------------------------|
E|---------------------------|------------------------------|

LICK n°2:
e|---------------------------|------------------------------|
B|-6--6--6-----6-----6--8-6--|-6--6--6--6-----6-----6--8-6--|
G|----------7-----7----------|-------------7-----7----------|
D|---------------------------|------------------------------|
A|---------------------------|------------------------------|
E|---------------------------|------------------------------|

LICK n°3:
e|-8-8-8---------------------|----6-6-6---------------------|
B|--------8--8--8--8--10--8--|-----------6--6--6--6--8--6---|
G|---------------------------|------------------------------|
D|---------------------------|------------------------------|
A|---------------------------|------------------------------|
E|---------------------------|------------------------------|


---------------------Ukulule Tabs--------------------------

LICK n°1:
A|-------------------0-------|---------------------0-------|
E|-1--1--1-----1--------3-1--|-1-1--1--1-----1--------3-1--|
C|----------2-----2----------|------------2-----2----------|
G|---------------------------|-----------------------------|

LICK n°2:
A|---------------------------|-----------------------------|
E|-1--1--1-----1-----1--3-1--|-1-1--1--1-----1-----1--3-1--|
C|----------2-----2----------|------------2-----2----------|
G|---------------------------|-----------------------------|

LICK n°3:
A|-3-3-3---------------------|---1-1-1---------------------|
E|--------3--3--3--3--5--3---|----------1--1--1--1--3--1---|
C|---------------------------|-----------------------------|
G|---------------------------|-----------------------------|

Zina Tabs – Babylone Vsion 2

 -------------------------------------------------------------------------------
                             ZINA - Babylone
-------------------------------------------------------------------------------
: Melissa El-Hani
 melissaelhani

Tuning: Standard


Verse and Chorus:

      G                 Cadd9                 Em7                    D

e|----------3---3-------------3---3-------------3---3-----------------2---2---------|
B|------3----------3------3----------3------3-----------3---------3----------3------|
G|----0---0---0---------0---0---0---------0---0---0-------------2---2---2-----------|
D|-----------------------------------------------------------0----------------------|
A|--2-----------------3-----------------2-------------------------------------------|
E|----------------------------------------------------------------------------------|



Solo : 

e|---------------------------------------------------------------------------------|
B|---------------------------------------------------------------------------------|
G|-7h9-7-------7------------7-9----------------------------------------------------|
D|-------9-7h9---7-5-7--7h9-----9/10\9-7-5-7-----5-5-------------------------------|
A|-------------------------------------------5h7-----------------------------------|
E|---------------------------------------------------------------------------------|

e|---------------------------------------------------------------------------------|
B|---------------------------------------------------------------------------------|
G|-7s9-7-------7--------------7--12-11---------------------------------------------|
D|-------9-7h9---7-5-7--5h7-9-----------12-7/9-9\7-5-5------------------------------|
A|---------------------------------------------------------------------------------|
E|---------------------------------------------------------------------------------|


Outro:

e|---------------------------------------------------------------------------------|
B|---------------------------------------------------------------------------------|
G|------7------7--------    ---------7-------7-------------------------------------|
D|--7h9---7h9-----7-5---(x3)----7h9-----7h9-----7-5--5h7-7-5h7 ----5h7--5-5--------|
A|----------------------    -----------------------------------5h7-----------------|
E|---------------------------------------------------------------------------------|

************************************

| /   slide up
| \   slide down
| h   hammer-on
| p   pull-off

************************************

Freazy intro Tabs – Wolf Alice

 -------------------------------------------------------------------------------
                             Freazy - Wolf Alice
-------------------------------------------------------------------------------
: Esme 
Twitter: @m0aninglisa

Tuning:Standard (E)

e|---------------------------------------------------------------------------|
B|--/5---0---1---0---------/5---0---1---3------------------------------------|
G|-------------------0-------------------------------------------------------|
D|---------------------------------------------------------------------------|
A|---------------------------------------------------------------------------|
E|---------------------------------------------------------------------------|

e|---------------------------------------------------------------------------|
B|--/5---0---1---0-----------------------------------------------------------|
G|-------------------0-----------2-2-2b-0------------------------------------|
D|---------------------------------------------------------------------------|
A|---------------------------------------------------------------------------|
E|---------------------------------------------------------------------------|


************************************

| /   slide up
| \   slide down
| h   hammer-on
| p   pull-off
| ~   vibrato
| +   harmonic
| x   Mute note
| b   Bend
| pb  Pre-bend
| br  Bend release
| pbr Pre-bend release
| brb Bend release bend

************************************

Fall Tabs – Something Corporate Vsion 2

 Song: Fall
 Something Corporate
Tuning: eADGBE
 Brandon Bushnell


Intro/Verse:Riff1                                              
E|-----------------------------------------------------------|
B|-----------------------------------------------------------|
G|------------------------------------44-44-4444-------------|
D|22-22-2222--44-44-4444--66-66-6666--44-44-4444-Repeat 3x---|
A|22-22-2222--44-44-4444--66-66-6666--22-22-2222-------------|
e|00-00-0000--22-22-2222--44-44-4444-------------------------|


 [Lead Guitar Fill] 
E|-----------------------------------------|
B|--44444444------------1111111--44444444--|
G|------------88888888---------------------|
D|-----------------------------------------|
A|-----------------------------------------|
e|-----------------------------------------|

  [Pre-Chorus]
E|------------------------------------------|
B|--------------------------------44444444--|
G|--------------------------------44444444--|
D|--22222222--44444444--66666666--22222222--|
A|--22222222--44444444--66666666------------|
e|--00000000--22222222--44444444------------|

[Chorus]:(x2)
E|-----------------------------------------|
B|-----------------------------------------|
G|------4444-----------------4444----------|
D|-2222-4444-4444-66-44-2222-4444-44444444-|
A|-2222-2222-4444-66-44-2222-2222-44444444-|
e|-0000------2222-44-22-0000------22222222-|


E|-----------------------------------------------------------|
B|-----------------------------------------------------------|
G|------------------------------------44-44-4444-------------|
D|22-22-2222--44-44-4444--66-66-6666--44-44-4444-Repeat 4x---|
A|22-22-2222--44-44-4444--66-66-6666--22-22-2222-------------|
e|00-00-0000--22-22-2222--44-44-4444-------------------------|


 [Lead Guitar Fills]
E|-------------------------------------------|----------------------------------------------------|
B|-------------------------------------------|-----------------------------------------14p0-14p0--|
G|--3333-4444-3333-4444-3333-4444-6666-4444--|-------------h11p0--h11p0--h11p0--h11p0-------------|
D|-------------------------------------------|--11br-9v-------------------------------------------|
A|-------------------------------------------|----------------------------------------------------|
e|-------------------------------------------|----------------------------------------------------|


[Pre-Chorus]
E|------------------------------------------|
B|--------------------------------44444444--|
G|--------------------------------44444444--|
D|--22222222--44444444--66666666--22222222--|
A|--22222222--44444444--66666666------------|
e|--00000000--22222222--44444444------------|


[Chorus]:(x2)
E|-----------------------------------------|
B|-----------------------------------------|
G|------4444-----------------4444----------|
D|-2222-4444-4444-66-44-2222-4444-44444444-|
A|-2222-2222-4444-66-44-2222-2222-44444444-|
e|-0000------2222-44-22-0000------22222222-|


Interlude:(x4)
E|---------------------------|
B|---------------------------|
G|---------------------------|
D|--66666666666668-98989898--|
A|--66666666666668-98989898--|
e|--44444444444446-76767676--|
  pm.............

 [Lead Guitar Fills]
E|-------------------------------------------------------------------|
B|-------------------------------------------------------------------|
G|-------------------------------------------------------------------|
D|--11br--9-8-9-8-9-8---11br--9-8-9-8-9-8--11br--9-8-9-8-9-8--11br~--|
A|-------------------------------------------------------------------|
e|-------------------------------------------------------------------|


[Chorus]:(x2)
E|-----------------------------------------|
B|-----------------------------------------|
G|------4444-----------------4444----------|
D|-2222-4444-4444-66-44-2222-4444-44444444-|
A|-2222-2222-4444-66-44-2222-2222-44444444-|
e|-0000------2222-44-22-0000------22222222-|

 
[Lead Guitar] 
E|--------------------------------------------

Man In The Night Tabs – Kid Cudi

 -------------------------------------------------------------------------------
                             Kid Cudi - Man in the night
-------------------------------------------------------------------------------
: gautierfontaine
 Gautier.fontaine@free.fr

Man in the night - Speedin' bullet to heaven

Tuning:

e|---------------------------------------------------------------------------|
B|---------------------------------------------------------------------------|
G|---------------------------------------------------------------------------|
D|---------------------------------------------------------------------------|
A|-4-4-4-4-/-14-14-14-14-\-4-4-4-4-/-14-14-14-14-----------------------------|
E|-2-2-2-2-/-12-12-12-12-\-2-2-2-2-/-12-12-12-12-----------------------------|

Before the refrain :

e|---------------------------------------------------------------------------|
B|---------------------------------------------------------------------------|
G|---------------------------------------------------------------------------|
D|---------------------------------------------------------------------------|
A|-4-4--5-5------------------------------------------------------------------|
E|-2-2--3-3------------------------------------------------------------------|


************************************

/   slide up
\   slide down

1979 intro Tabs – Freedom Fry

  I've ever done and I was just wondering if I did it correctly, so please give some
feedback. It's only the first few lines so that's why I'm just doing it as an intro.


||TUNING : Standard (EADGBE)||



E|------2------2------2------3-|
B|-----------------------------|
G|----0------0------0------0---|
D|-----------------------------|
A|-----------------------------|
E|-3------3------3------3------|

E|-----------------------------|
B|------3------3------3------1-|
G|----0------0------0------0---|
D|-----------------------------|
A|----------------------3------|
E|-3------3------3-------------|

E|-----------------------------|
B|------1------1------1------0-|
G|----0------0------0------0---|
D|-----------------------------|
A|-3------3------3------3------|
E|-----------------------------|

E|-----------------------------|
B|------0------0------0------0-|
G|----0------0------0------0---|
D|-----------------------------|
A|-3------3------3-------------|
E|----------------------3------|

PLEASE GIVE FEEDBACK :)

Wait For The People Acoustic Tabs – James Chatburn

 ------------------------
Wait for the People - James Chatburn
------------------------
: Nosnip
Tuning: Normal EADGBe
--This isn't exactly what James Chatburn plays but I think it's close

    1   2   3   4
e|--x---x---x---x---|
B|--2---6---4---2---|
G|--1---5---3---1---|
D|--2---6---4---2---|
A|--x---4---2---0---|
E|--2---x---x---x---|

INTRO
e|---------------------------------------------------------------------------------------------|
B|------------2-------------------------2-----------------------2-----------------------2------|
G|------------1-------------------------1-----------------------1-----------------------1------|
D|----2----------------2-------2----------------2-------2----------------2-------2------------2|
A|---------------------------------------------------------------------------------------------|
E|-2-----2---------2-------2-------2--------2-------2-------2--------2-------2-------2-----2---|

e|---------------------------------------------------------------------------------------------|
B|------------6-------------------------6-----------------------6------------------------6-----|
G|------------5-------------------------5-----------------------5------------------------5-----|
D|----6----------------6-------6----------------6-------6----------------6-------6-------------|
A|-4-----4---------4-------4-------4--------4-------4-------4--------4-------4-------4---------|
E|---------------------------------------------------------------------------------------------|

e|---------------------------------------------------------------------------------------------|
B|------------2-------------------------2-----------------------2-----------------------2------|
G|------------1-------------------------1-----------------------1-----------------------1------|
D|----2----------------2-------2----------------2-------2----------------2-------2------------2|
A|-----------------------------------------------------------------------------------------------|
B|------------4-------------------------4-----------------------2------------------------2-----|
G|------------3-------------------------3-----------------------1------------------------1-----|
D|----4----------------4-------4----------------4-------2----------------2-------2-------------|
A|-2-----2---------2-------2-------2--------2-------0-------0--------0-------0-------0---------|
E|---------------------------------------------------------------------------------------------|

e|----------------------------------------------------|
B|------------------------2----------------------2----|
G|------------------------1----------------------1----|
D|--------2-------2---------------2-------2-----------|
A|---0-------0--------0-------0-------0-------0-------|
E|----------------------------------------------------|

VERSE X2(Exactly the same as the intro)
e|---------------------------------------------------------------------------------------------|
B|------------2-------------------------2-----------------------2-----------------------2------|
G|------------1-------------------------1-----------------------1-----------------------1------|
D|----2----------------2-------2----------------2-------2----------------2-------2------------2|
A|---------------------------------------------------------------------------------------------|
E|-2-----2---------2-------2-------2--------2-------2-------2--------2-------2-------2-----2---|

e|---------------------------------------------------------------------------------------------|
B|------------6-------------------------6-----------------------6------------------------6-----|
G|------------5-------------------------5-----------------------5------------------------5-----|
D|----6----------------6-------6----------------6-----

Miserable Tabs – Lit Vsion 7

 Song: Miserable
 Lit
Tuning: eADGBE
: Brandon Bushnell


[Intro Clean]
E|---------------------------------2--2-----------------|------------------|
B|---------------------------------2----2---------------|------------------|
G|--7--7--77--2--2--22-------------2------2-------------|--7--7--77----4~--|
D|--7--7--77--2--2--22--2--2--22---4---------Repeat 3x--|--7--7--77----4~--|
A|--5--5--55--0--0--00--2--2--22---4--------------------|--5--5--55----2~--|
e|----------------------0--0--00---2--------------------|------------------|

 [Verse Distortion] 
E|----------------------------------------------------------|
B|----------------------------------------------------------|
G|----------------------------------------------------------|
D|--6--6--6--6--6--6--6--6--4-4-4-4-4-4-4-4-4-4-4-4-4-4-4---| 3x
A|--x--x--x--x--x--x--x--x--4-4-4-4-4-4-4-4-4-4-4-4-4-4-4---|
e|--5--5--5--5--5--5--5--5--2-2-2-2-2-2-2-2-2-2-2-2-2-2-2---|

E|-----------------------------------------------------|
B|-----------------------------------------------------|
G|--7--7--77-7-7-777--2--2--22--4-4-44-4-4-44----------|
D|--7--7--77-7-7-777--2--2--22--4-4-44-4-4-44----------|
A|--5--5--55-5-5-555--0--0--00--6-6-66-6-6-66----------|
e|-----------------------------------------------------|


[Verse 2 Distortion] 
E|----------------------------------------------------------|
B|----------------------------------------------------------|
G|----------------------------------------------------------|
D|--6--6--6--6--6--6--6--6--4-4-4-4-4-4-4-4-4-4-4-4-4-4-4---| 3x
A|--x--x--x--x--x--x--x--x--4-4-4-4-4-4-4-4-4-4-4-4-4-4-4---|
e|--5--5--5--5--5--5--5--5--2-2-2-2-2-2-2-2-2-2-2-2-2-2-2---|



E|-----------------------------------------------------|
B|-----------------------------------------------------|
G|--7--7--77-7-7-777--2--2--22--4-4-44-4-4-44----------|
D|--7--7--77-7-7-777--2--2--22--4-4-44-4-4-44----------|
A|--5--5--55-5-5-555--0--0--00--6-6-66-6-6-66----------|
e|-----------------------------------------------------|


[Distortion]
E|---------------------------------2--2-----------------|------------------|
B|---------------------------------2----2---------------|------------------|
G|--7--7--77--2--2--22-------------2------2-------------|--7--7--77----4~--|
D|--7--7--77--2--2--22--2--2--22---4---------Repeat 3x--|--7--7--77----4~--|
A|--5--5--55--0--0--00--2--2--22---4--------------------|--5--5--55----2~--|
e|----------------------0--0--00---2--------------------|------------------|


Solo (dist. w/auto wah): 
E----------------------------17-16----------17-16/--| 
B--14-14-12-14--14\17-17-14--------17-17-14---------| 
G---------------------------------------------------| 
D---------------------------------------------------| 
A---------------------------------------------------| 
e---------------------------------------------------| 

E-------------------------------17-16-----------17--17b-17b-17b-17b-17b-17b---| 
B--14-14-12-14--12-14--14/17-14-------17-17-14--------------------------------| 
G-----------------------------------------------------------------------------|
D-----------------------------------------------------------------------------|
A-----------------------------------------------------------------------------|
e-----------------------------------------------------------------------------|

 [Distortion]
E|-----------------------------------------------------|
B|-----------------------------------------------------|
G|--7--7--77-7-7-777--2--2--22--4-4-44-4-4-44----------|
D|--7--7--77-7-7-777--2--2--22--4-4-44-4-4-44----------|
A|--5--5--55-5-5-555--0--0--00--6-6-66-6-6-66----------|
e|-----------------------------------------------------|


[Clean Pre-outro] Outro is same thing just turn on Distortion. 
E|---------------------------------2--2-----------------|------------------|
B|---------------------------------2----2---------------|------------------|
G|--7--7--77--2--2--22-------------2------2-------------|--7--7--7

Outer Senshi Theme Tabs – Misc Soundtrack

 This is my first ever tab so don't be a Sailor Uranus about it. Anyways, I'm pretty
sure the guitar tab to this song doesn't exist anywhere else yet as of 1/6/2016.
So you have no choice but to give this 5 stars by default AHAHAHAHAHA!!!!
-------------------------------------------------------------------------------------------------------------
                             Outer Senshi Theme - Sailor Moon - Takanori Arisawa (R.I.P.)
-------------------------------------------------------------------------------------------------------------

: Ludnorc


Tuning:E Standard

Violin part transposed to guitar
E|-------------------------------------|---------------------------------------------|
B|--------------10---------------------|-----------------10--------------------10----|
G|-9---9--11-12----12-11-9-------------|---9---9--11--12----12--11--9-11-12----------|
D|---9----------------------12-10---12-|-----9---------------------------------------|
A|-------------------------------------|---------------------------------------------|
E|-------------------------------------|---------------------------------------------|
                                                                                           - - - - - - - [[[}
|-------------8-----------------10-8--|------------8---11-8-------------------8--10--|
|12-9-10-12----10-------------------12|-10------10---12-----10--------10--12---------|
|------------------9-12-11--11--------|----11-12---------------11-12-----------------|
|-------------------------------------|----------------------------------------------|
|-------------------------------------|----------------------------------------------|
|-------------------------------------|----------------------------------------------|

the above repeats then the song ends with;

|-12-------|
|----------|
|----9-----|
|----------|
|----------|
|----------|



Huh this guitar tab kinda looks like a pistol..weird...

Blue Velvet Skies Tabs – Like Wendy

 ---------------------------------------------------------------------------------------------------------------
                                          Artist - Like Wendy 
                                         *********************
                                       Song - Blue Velvet Skies
                                      **************************
                                    Album - The Storm Inside (1998)   
                                   *********************************
                                          - Ayreon77
                                        **********************
---------------------------------------------------------------------------------------------------------------
Tuning = Standard

p   = Pull Off
h   = Hammer On
b   = Bend
rb  = Release Bend
rbp = Release Bend Pulloff
br  = Bend Release
brp = Bend Release Pulloff
/   = Slide
UB  = Union Bend



KEYBOARD INTRO
***************


----------------------------
00:38
SOLO 1 - Vol = *
*******

e|--*-----|-----------------------------|----------------------|---------------------|--------------|
B|-13~~~~-|---h-------s---------s-------|-----s---------s------|------s---------s----|---h------13--|
G|--------|-12-14--12-\10-10--9-\7-7~~~-|-7-9-\10-12--12\14-14-|-14-12\10-10--9-\7-7-|-12-14-12-----|
D|--------|-----------------------------|----------------------|---------------------|--------------|
A|--------|-----------------------------|----------------------|---------------------|--------------|
E|--------|-----------------------------|----------------------|---------------------|--------------|

00:51                                              00:56       h  p
e|-----------------5---5-|---8-7-----h--p-s-s-----|-10-13-12-10-12-10----10----------------|-----------------b-|
B|--p----------5-8---8---|--x----10-8-10-8\5/8--s-|-------------------13----13-12-10-12-13-|-10-12-13-12-13-13-|
G|-5-4---4-5-7-----------|-x-------------------9\-|----------------------------------------|-------------------|
D|-----7-----------------|------------------------|----------------------------------------|-------------------|
A|-----------------------|------------------------|----------------------------------------|-------------------|
E|-----------------------|------------------------|----------------------------------------|-------------------|

01:03
e|--b-10-|--b-10-|--b-10-|--b-10-|--b-10-|--b-10-|--b-10-|--b-10-|--b-10-|--b-10-|--br--------|
B|-13----|-13----|-13----|-13----|-13----|-13----|-13----|-13----|-13----|-13----|-13-10------|
G|-------|-------|-------|-------|-------|-------|-------|-------|-------|-------|-------12~~-|
D|-------|-------|-------|-------|-------|-------|-------|-------|-------|-------|------------|
A|-------|-------|-------|-------|-------|-------|-------|-------|-------|-------|------------|
E|-------|-------|-------|-------|-------|-------|-------|-------|-------|-------|------------|


e|----------|------------------------------|-----------------------------|----------------------|
B|---h--p---|--h--p-s---h---h---s---p---h--|---h-------s--------s--------|-----s---------s------|
G|-10-12-10-|-9-10-9\7-7-9-7-9-7\5-7-5-4-5-|-12-14--12-\10-10--9-\7-7~~~-|-7-9-\10-12--12\14-14-|
D|----------|------------------------------|-----------------------------|----------------------|
A|----------|------------------------------|-----------------------------|----------------------|
E|----------|------------------------------|-----------------------------|----------------------|


e|---------------------|-----------------s-|
B|------s---------s----|---h------13~~~~~\-|
G|-14-12\10-10--9-\7-7-|-12-14-12----------|
D|---------------------|-------------------|
A|---------------------|-------------------|
E|---------------------|-------------------|


----------------------------
01:33
VERSE 1
********
    Dm               F
The light moves slowly
    C                 Dm
The skyline cuts it's threads
    Dm    

Degenerate Tabs – Blink-182 Vsion 5

 -------------------------------------------------------------------------------
                             Degenerate - blink-182
-------------------------------------------------------------------------------

: Strobber

Tuning: Standard

This song is fairly hard, so it's perfect if you're an intermediate player. 
Version 3 has the best rating, however the verses and the solo are tabbed wrong.
This tab fixes it, I also tried my best to make it as easy to read.

Verse 1:

e|--------------------------------------
B|--------------------------------------
G|---3---------------7-------5----------
D|---3-------3-------7-------5----------
A|---1-------3-------5-------3----------
E|-----------1--------------------------

Verse 2:

e|--------------------------------------
B|--------------------------------------
G|----3------2------3------2------------
D|------3------3--1---3------3p0--------
A|--1--------------------3--------------
E|---------1----------------------------

Chorus:

No specific strumming pattern

e|--------------------------------------
B|--------------------------------------
G|---3---------------8--------10--------
D|---3-------3-------8--------10--------
A|---1-------3-------6--------8---------
E|-----------1--------------------------

Solo 1:

End with a Bb power chord the last time

e|------------------------------------------------------|--------
B|------------------------------------------------------|--------
G|--3--3-3-2-2-2----------------3--3-3-2-2-2--5-3-2-3-5-|----3---
D|---------------5--5-5-3--3-3--------------------------|----3---
A|------------------------------------------------------|----1---
E|------------------------------------------------------|--------

Solo 2:

e|----------------------------------------------------------------------------------------------
B|-3-4-6-6-4-3-4-3---3---4-3--------------------------------------------------------------------
G|-----------------5---5-----5-3-2-2-2p0----2-3p2---3p2---3p2-0---------------------------3-----
D|----------------------------------------5-------5-----5--------0-1-1s3-3-3-3-3s1-1p0-0--3-----
A|----------------------------------------------------------------------------------------1-----
E|----------------------------------------------------------------------------------------------

End with:

e|---------------
B|---------------
G|--3--3--3--3---
D|--3--3--3--3---
A|--1--1--1--1---
E|---------------

-------------------------

Verse 1 x4
Verse 2 x4
Chorus  x2
Solo 1  x2
Verse 1 x4
Verse 2 x4
Chorus  x2
Solo 1  x2 (this time don't end with the Bb power chord)
Solo 2  x1
Chorus  x2
Ending  x1


Thats it, have fun!

Ты Не Такая Acoustic Tabs – Валентин Стрыкало

 -------------------------------------------------------------------------------
                             Валентин Стрыкало - Ты Не Такая Acoustic
-------------------------------------------------------------------------------
: Valerii Motresku

Tuning: Standard

Verse:

E|----------------------------------------------------------
B|---------11-----9h11------11-----11---------9h11------11--
G|-----11---------------11-------------11-----------11------
D|----------------------------------------------------------
A|--9----------9----------------8----------8----------------
E|----------------------------------------------------------

E|-------------------------------------------------------------
B|----------11------9h11------11-----12---------11---------11--
G|------11----------------11-------------11---------11---------
D|--------------------------------9----------9----------9------
A|-------------------------------------------------------------
E|--11----------11---------------------------------------------

Chorus:

E|--------------------------------------------------------
B|----------------11--------------------------7-----------
G|---------11---------11------11--------8--------8-----8--
D|-----11-----------------11---------8--------------------
A|--9----------9------------------6--------6--------6-----
E|--------------------------------------------------------

E|-------------------------------------------------------
B|-------------------------------------------------------
G|--------------8-------------------------10-------------
D|--------9--------9-----9---------11---------11-----11--
A|-----9--------------9--------11------------------------
E|--7--------7--------------9----------9----------9------

twice (2x) preceding chorus pattern and for the next 2 times: 

E|-------------------------------------------------------------
B|----------------11-----------------11---------11---------11--
G|---------11---------11------11---------10---------10---------
D|-----11-----------------11------8----------8----------8------
A|--9----------9-----------------------------------------------
E|-------------------------------------------------------------

E|--------------------------------------------------
B|--------------8-----------------------------------
G|--------8--------8-----8--------------8-----------
D|-----8--------------8-----------9--------9-----9--
A|--6--------6-----------------9--------------------
E|--------------------------7--------7--------7-----

Pre-bridge:

E|---------------------------------------------------
B|---------------------------------------------------
G|-----11---------11---------11---------11-----------
D|---------11---------11---------11---------11-------
A|--9----------9----------9----------9----------9~~--
E|---------------------------------------------------
 
Bridge:

E|----------------------x----------------------------------2-----x--------
B|----------9--7--------7----------------------------------2-----x--------
G|----------------6-----8-----1/4-----3-----1-----------x--3-----x--------
D|-------8--------------9-------------------------4-----x--4-----x--------
A|--5/9-----------------9----------------------------------4-----x--0--to-verse-pattern
E|----------------------x----------------------------------2-----x--------

Verse:

Chorus:

At the end play chorus twice with vibrato on the last note on the last iteration

Have fun!


************************************

| /   slide up
| \   slide down
| h   hammer-on
| p   pull-off
| ~   vibrato
| +   harmonic
| x   Mute note
| b   Bend
| pb  Pre-bend
| br  Bend release
| pbr Pre-bend release
| brb Bend release bend

************************************

Tamo Daleko Tabs – Traditional Serbian

 #----------------------------------PLEASE NOTE--------------------------------#
#This file is the author's own work and represents their interpretation of the#
#song. You may only use this file for private study, scholarship, or research.#
#-----------------------------------------------------------------------------#
#-- File created with Instab - http://www.pconline.com/~smcarey/instab.html --#
#-----------------------------------------------------------------------------#

Author/Artist: Srbian Tradicional 
Title: Tamo daleko
 Unknown
: BadelVlahov
Email: badelvlahov

There are many versions different by lyrics, but music is simmilar in every case!
I m from Bosnia and Herzegovina, please without any nazi or hate comments!

Cheers!


(Tamo daleko, daleko od mora....)
----|----------|----------------|----------------------|----------------------
----|----------|----------------|----------------------|----------------------
----|----------|---9-9-7-9-10-9-|--------9-7----7------|-9-10-9-7-------------
-7--|-7-10-9-7-|-7--------------|-7-9-10-----10---10-9-|----------10-9-7------
---7|----------|----------------|----------------------|----------------------
----|----------|----------------|----------------------|----------------------

                                                                              
(O zar je morala doć....)
-------------------|-----------------|----------------------|-----------------
-------------------|-----------------|----------------------|-----------------
---------9-7-----9-|--------9-7------|-7-7-7-7-------7-9-10-|-9-10-9-7--------
-7-9-10-------10---|-7-9-10-----10-9-|----------10-9--------|----------10-9-7-
-------------------|-----------------|----------------------|-----------------
-------------------|-----------------|----------------------|-----------------

Lyrics: 

Am            C     G     C
Tamo daleko, daleko od mora,
Am            Dm    E          Am
Tamo je selo moje, tamo je Srbija 2X

Tamo daleko, gdje cvata limun zut,
Tamo je Srpskoj vojsci jedini bio put 2X

Am                                     E
O zar je morala doć, ta tužna nesretna noć
                      E7             Am
Kada si dragane moj, otišo u krvav boj

Tamo daleko, gdje cveta beli krim,
Tamo su zivote dali zajedno otac i sin 2X

Tamo gdje tiha putuje Morava,
Tamo mi ikona osta, i moja krsna slava 2X

O zar je morala doć, ta tužna nesretna noć
Kada si dragane moj, otišo u krvav boj

Tamo gde kivo pozdravlja vekov rad,
Tamo mi spalise crkvu, u kojoj vencah se mlad 2X

Bez otadzbine na Krfu ziveh ja,
Ali sam ponosnop klico zivela Srbija 2X

Listen to song: http://www.1389.org.rs/pesme/Tamo%20Daleko.mp3
Youtube: https://www.youtube.com/watch?v=NHEFFK9EPgY

Greatings from Konjic! 

                                                                              

Words Of Love Tabs – The Mamas & The Papas Vsion 1

 WORDS OF LOVE

As recorded by The Mamas & The Papas
(From the 1966 Album THE MAMAS & THE PAPAS)

Words and Music by John Phillips

 Slowhand


Gtr I (E A D G B E) - 'John Phillips - Electric Guitar'


 Intro
 Shuffle Q=112(8=s8)
                        E          Abm/Eb       Dbm            Eb   Ab
 4/4
  Gtr I (Clean El. Gtr.)
  W          W           E  E  E E  E  E  E E    E  E  E  E  E  E E E
|----------|----------|-12-12-12-x-11-11-11-x-|--9--9--9--9--9-11---4--|
|----------|----------|-12-12-12-x-12-12-12-x-|--9--9--9--9--9-11---4--|
|----------|----------|-13-13-13-x-13-13-13-x-|--9--9--9--9--9-12---5--|
|----------|----------|-14-14-14-x-13-13-13-x-|-11-11-11-11-11-13---6--|
|----------|----------|-----------------------|------------------------|
|----------|----------|-----------------------|------------------------|


                                        1st Verse
                      Eb7                Ab7               Gb7
  +E  E E E E E E E   E E E E E E E E    E E E E E E E E   E E E E E E E E
|-(4)-4-4-x-4-4-4-x-|-----------------||-4-4-4-x-4-4-4-x-|-2-2-2-x-2-2-2-x--|
|-(4)-4-4-x-4-4-4-x-|-4-4-4-x-4-4-4-x-||-4-4-4-x-4-4-4-x-|-2-2-2-x-2-2-2-x--|
|-(5)-5-5-x-5-5-5-x-|-6-6-6-x-6-6-6-x-||-5-5-5-x-5-5-5-x-|-3-3-3-x-3-3-3-x--|
|-(6)-6-6-x-6-6-6-x-|-5-5-5-x-5-5-5-x-||-4-4-4-x-4-4-4-x-|-2-2-2-x-2-2-2-x--|
|-------------------|-6-6-6-x-6-6-6-x-||-6-6-6-x-6-6-6-x-|-4-4-4-x-4-4-4-x--|
|-------------------|-----------------||-4-4-4-x-4-4-4-x-|-2-2-2-x-2-2-2-x--|


  Cb7               Bb7     Eb7       Ab7               Gb7
  E E E E E E E E   E E E E E E E E   E E E E E E E E   E E E E E E E E
|-7-7-7-x-7-7-7-x-|-6-6-6-x---------|-4-4-4-x-4-4-4-x-|-2-2-2-x-2-2-2-x--|
|-7-7-7-x-7-7-7-x-|-6-6-6-x-4-4-4-x-|-4-4-4-x-4-4-4-x-|-2-2-2-x-2-2-2-x--|
|-8-8-8-x-8-8-8-x-|-7-7-7-x-6-6-6-x-|-5-5-5-x-5-5-5-x-|-3-3-3-x-3-3-3-x--|
|-7-7-7-x-7-7-7-x-|-6-6-6-x-5-5-5-x-|-4-4-4-x-4-4-4-x-|-2-2-2-x-2-2-2-x--|
|-9-9-9-x-9-9-9-x-|-8-8-8-x-6-6-6-x-|-6-6-6-x-6-6-6-x-|-4-4-4-x-4-4-4-x--|
|-7-7-7-x-7-7-7-x-|-6-6-6-x---------|-4-4-4-x-4-4-4-x-|-2-2-2-x-2-2-2-x--|


  Cb7               Bb7               Ab7               Gb7
  E E E E E E E E   E E E E E E E E   E E E E E E E E   E E E E E E E E
|-7-7-7-x-7-7-7-x-|-6-6-6-x-6-6-6-x-|-4-4-4-x-4-4-4-x-|-2-2-2-x-2-2-2-x--|
|-7-7-7-x-7-7-7-x-|-6-6-6-x-6-6-6-x-|-4-4-4-x-4-4-4-x-|-2-2-2-x-2-2-2-x--|
|-8-8-8-x-8-8-8-x-|-7-7-7-x-7-7-7-x-|-5-5-5-x-5-5-5-x-|-3-3-3-x-3-3-3-x--|
|-7-7-7-x-7-7-7-x-|-6-6-6-x-6-6-6-x-|-4-4-4-x-4-4-4-x-|-2-2-2-x-2-2-2-x--|
|-9-9-9-x-9-9-9-x-|-8-8-8-x-8-8-8-x-|-6-6-6-x-6-6-6-x-|-4-4-4-x-4-4-4-x--|
|-7-7-7-x-7-7-7-x-|-6-6-6-x-6-6-6-x-|-4-4-4-x-4-4-4-x-|-2-2-2-x-2-2-2-x--|


  Cb7               Bb7     A7       Ab7              Gb7
  E E E E E E E E   E E E E E E Q    E E E E E E Q    E E E E E E Q
|-7-7-7-x-7-7-7-x-|-6-6-6-6-5------|-4-4-4-4-4------|-2-2-2-2-2-------|
|-7-7-7-x-7-7-7-x-|-6-6-6-6-5------|-4-4-4-4-4------|-2-2-2-2-2-------|
|-8-8-8-x-8-8-8-x-|-7-7-7-7-6------|-5-5-5-5-5------|-3-3-3-3-3-------|
|-7-7-7-x-7-7-7-x-|-6-6-6-6-5------|-4-4-4-4-4------|-2-2-2-2-2-------|
|-9-9-9-x-9-9-9-x-|-8-8-8-8-7------|-6-6-6-6-6------|-4-4-4-4-4-------|
|-7-7-7-x-7-7-7-x-|-6-6-6-6-5------|-4-4-4-4-4------|-2-2-2-2-2-------|


                                    Bridge
                                  Straight Q=112
  E7               Eb7               Fm              Bbm
  E E E E E E Q    E E E E E E Q     Q  E E E Q  E   Q  E E E Q  E
|----------------|----------------||-1--1-1-1-1--1-|-1--1-1-1-1--1--|
|-5-5-5-5-5------|-4-4-4-4-4------||-1--1-1-1-1--1-|-2--2-2-2-2--2--|
|-7-7-7-7-7------|-6-6-6-6-6------||-1--1-1-1-1--1-|-3--3-3-3-3--3--|
|-6-6-6-6-6------|-5-5-5-5-5------||-3--3-3-3-3--3-|-3--3-3-3-3--3--|
|-7-7-7-7-7------|-6-6-6-6-6------||-3--3-3-3-3--3-|-1--1-1-1-1--1--|
|----------------|----------------||-1--1-1-1-1--1-|----------------|


                                Shuffle Q=112(8=s8)
  Gb              Eb7             Ab7             Gb7
  Q  E E