Tag: tabs

Degenerate Tabs – Blink-182 Vsion 5

 -------------------------------------------------------------------------------
                             Degenerate - blink-182
-------------------------------------------------------------------------------

: Strobber

Tuning: Standard

This song is fairly hard, so it's perfect if you're an intermediate player. 
Version 3 has the best rating, however the verses and the solo are tabbed wrong.
This tab fixes it, I also tried my best to make it as easy to read.

Verse 1:

e|--------------------------------------
B|--------------------------------------
G|---3---------------7-------5----------
D|---3-------3-------7-------5----------
A|---1-------3-------5-------3----------
E|-----------1--------------------------

Verse 2:

e|--------------------------------------
B|--------------------------------------
G|----3------2------3------2------------
D|------3------3--1---3------3p0--------
A|--1--------------------3--------------
E|---------1----------------------------

Chorus:

No specific strumming pattern

e|--------------------------------------
B|--------------------------------------
G|---3---------------8--------10--------
D|---3-------3-------8--------10--------
A|---1-------3-------6--------8---------
E|-----------1--------------------------

Solo 1:

End with a Bb power chord the last time

e|------------------------------------------------------|--------
B|------------------------------------------------------|--------
G|--3--3-3-2-2-2----------------3--3-3-2-2-2--5-3-2-3-5-|----3---
D|---------------5--5-5-3--3-3--------------------------|----3---
A|------------------------------------------------------|----1---
E|------------------------------------------------------|--------

Solo 2:

e|----------------------------------------------------------------------------------------------
B|-3-4-6-6-4-3-4-3---3---4-3--------------------------------------------------------------------
G|-----------------5---5-----5-3-2-2-2p0----2-3p2---3p2---3p2-0---------------------------3-----
D|----------------------------------------5-------5-----5--------0-1-1s3-3-3-3-3s1-1p0-0--3-----
A|----------------------------------------------------------------------------------------1-----
E|----------------------------------------------------------------------------------------------

End with:

e|---------------
B|---------------
G|--3--3--3--3---
D|--3--3--3--3---
A|--1--1--1--1---
E|---------------

-------------------------

Verse 1 x4
Verse 2 x4
Chorus  x2
Solo 1  x2
Verse 1 x4
Verse 2 x4
Chorus  x2
Solo 1  x2 (this time don't end with the Bb power chord)
Solo 2  x1
Chorus  x2
Ending  x1


Thats it, have fun!

Ты Не Такая Acoustic Tabs – Валентин Стрыкало

 -------------------------------------------------------------------------------
                             Валентин Стрыкало - Ты Не Такая Acoustic
-------------------------------------------------------------------------------
: Valerii Motresku

Tuning: Standard

Verse:

E|----------------------------------------------------------
B|---------11-----9h11------11-----11---------9h11------11--
G|-----11---------------11-------------11-----------11------
D|----------------------------------------------------------
A|--9----------9----------------8----------8----------------
E|----------------------------------------------------------

E|-------------------------------------------------------------
B|----------11------9h11------11-----12---------11---------11--
G|------11----------------11-------------11---------11---------
D|--------------------------------9----------9----------9------
A|-------------------------------------------------------------
E|--11----------11---------------------------------------------

Chorus:

E|--------------------------------------------------------
B|----------------11--------------------------7-----------
G|---------11---------11------11--------8--------8-----8--
D|-----11-----------------11---------8--------------------
A|--9----------9------------------6--------6--------6-----
E|--------------------------------------------------------

E|-------------------------------------------------------
B|-------------------------------------------------------
G|--------------8-------------------------10-------------
D|--------9--------9-----9---------11---------11-----11--
A|-----9--------------9--------11------------------------
E|--7--------7--------------9----------9----------9------

twice (2x) preceding chorus pattern and for the next 2 times: 

E|-------------------------------------------------------------
B|----------------11-----------------11---------11---------11--
G|---------11---------11------11---------10---------10---------
D|-----11-----------------11------8----------8----------8------
A|--9----------9-----------------------------------------------
E|-------------------------------------------------------------

E|--------------------------------------------------
B|--------------8-----------------------------------
G|--------8--------8-----8--------------8-----------
D|-----8--------------8-----------9--------9-----9--
A|--6--------6-----------------9--------------------
E|--------------------------7--------7--------7-----

Pre-bridge:

E|---------------------------------------------------
B|---------------------------------------------------
G|-----11---------11---------11---------11-----------
D|---------11---------11---------11---------11-------
A|--9----------9----------9----------9----------9~~--
E|---------------------------------------------------
 
Bridge:

E|----------------------x----------------------------------2-----x--------
B|----------9--7--------7----------------------------------2-----x--------
G|----------------6-----8-----1/4-----3-----1-----------x--3-----x--------
D|-------8--------------9-------------------------4-----x--4-----x--------
A|--5/9-----------------9----------------------------------4-----x--0--to-verse-pattern
E|----------------------x----------------------------------2-----x--------

Verse:

Chorus:

At the end play chorus twice with vibrato on the last note on the last iteration

Have fun!


************************************

| /   slide up
| \   slide down
| h   hammer-on
| p   pull-off
| ~   vibrato
| +   harmonic
| x   Mute note
| b   Bend
| pb  Pre-bend
| br  Bend release
| pbr Pre-bend release
| brb Bend release bend

************************************

Tamo Daleko Tabs – Traditional Serbian

 #----------------------------------PLEASE NOTE--------------------------------#
#This file is the author's own work and represents their interpretation of the#
#song. You may only use this file for private study, scholarship, or research.#
#-----------------------------------------------------------------------------#
#-- File created with Instab - http://www.pconline.com/~smcarey/instab.html --#
#-----------------------------------------------------------------------------#

Author/Artist: Srbian Tradicional 
Title: Tamo daleko
 Unknown
: BadelVlahov
Email: badelvlahov

There are many versions different by lyrics, but music is simmilar in every case!
I m from Bosnia and Herzegovina, please without any nazi or hate comments!

Cheers!


(Tamo daleko, daleko od mora....)
----|----------|----------------|----------------------|----------------------
----|----------|----------------|----------------------|----------------------
----|----------|---9-9-7-9-10-9-|--------9-7----7------|-9-10-9-7-------------
-7--|-7-10-9-7-|-7--------------|-7-9-10-----10---10-9-|----------10-9-7------
---7|----------|----------------|----------------------|----------------------
----|----------|----------------|----------------------|----------------------

                                                                              
(O zar je morala doć....)
-------------------|-----------------|----------------------|-----------------
-------------------|-----------------|----------------------|-----------------
---------9-7-----9-|--------9-7------|-7-7-7-7-------7-9-10-|-9-10-9-7--------
-7-9-10-------10---|-7-9-10-----10-9-|----------10-9--------|----------10-9-7-
-------------------|-----------------|----------------------|-----------------
-------------------|-----------------|----------------------|-----------------

Lyrics: 

Am            C     G     C
Tamo daleko, daleko od mora,
Am            Dm    E          Am
Tamo je selo moje, tamo je Srbija 2X

Tamo daleko, gdje cvata limun zut,
Tamo je Srpskoj vojsci jedini bio put 2X

Am                                     E
O zar je morala doć, ta tužna nesretna noć
                      E7             Am
Kada si dragane moj, otišo u krvav boj

Tamo daleko, gdje cveta beli krim,
Tamo su zivote dali zajedno otac i sin 2X

Tamo gdje tiha putuje Morava,
Tamo mi ikona osta, i moja krsna slava 2X

O zar je morala doć, ta tužna nesretna noć
Kada si dragane moj, otišo u krvav boj

Tamo gde kivo pozdravlja vekov rad,
Tamo mi spalise crkvu, u kojoj vencah se mlad 2X

Bez otadzbine na Krfu ziveh ja,
Ali sam ponosnop klico zivela Srbija 2X

Listen to song: http://www.1389.org.rs/pesme/Tamo%20Daleko.mp3
Youtube: https://www.youtube.com/watch?v=NHEFFK9EPgY

Greatings from Konjic! 

                                                                              

Words Of Love Tabs – The Mamas & The Papas Vsion 1

 WORDS OF LOVE

As recorded by The Mamas & The Papas
(From the 1966 Album THE MAMAS & THE PAPAS)

Words and Music by John Phillips

 Slowhand


Gtr I (E A D G B E) - 'John Phillips - Electric Guitar'


 Intro
 Shuffle Q=112(8=s8)
                        E          Abm/Eb       Dbm            Eb   Ab
 4/4
  Gtr I (Clean El. Gtr.)
  W          W           E  E  E E  E  E  E E    E  E  E  E  E  E E E
|----------|----------|-12-12-12-x-11-11-11-x-|--9--9--9--9--9-11---4--|
|----------|----------|-12-12-12-x-12-12-12-x-|--9--9--9--9--9-11---4--|
|----------|----------|-13-13-13-x-13-13-13-x-|--9--9--9--9--9-12---5--|
|----------|----------|-14-14-14-x-13-13-13-x-|-11-11-11-11-11-13---6--|
|----------|----------|-----------------------|------------------------|
|----------|----------|-----------------------|------------------------|


                                        1st Verse
                      Eb7                Ab7               Gb7
  +E  E E E E E E E   E E E E E E E E    E E E E E E E E   E E E E E E E E
|-(4)-4-4-x-4-4-4-x-|-----------------||-4-4-4-x-4-4-4-x-|-2-2-2-x-2-2-2-x--|
|-(4)-4-4-x-4-4-4-x-|-4-4-4-x-4-4-4-x-||-4-4-4-x-4-4-4-x-|-2-2-2-x-2-2-2-x--|
|-(5)-5-5-x-5-5-5-x-|-6-6-6-x-6-6-6-x-||-5-5-5-x-5-5-5-x-|-3-3-3-x-3-3-3-x--|
|-(6)-6-6-x-6-6-6-x-|-5-5-5-x-5-5-5-x-||-4-4-4-x-4-4-4-x-|-2-2-2-x-2-2-2-x--|
|-------------------|-6-6-6-x-6-6-6-x-||-6-6-6-x-6-6-6-x-|-4-4-4-x-4-4-4-x--|
|-------------------|-----------------||-4-4-4-x-4-4-4-x-|-2-2-2-x-2-2-2-x--|


  Cb7               Bb7     Eb7       Ab7               Gb7
  E E E E E E E E   E E E E E E E E   E E E E E E E E   E E E E E E E E
|-7-7-7-x-7-7-7-x-|-6-6-6-x---------|-4-4-4-x-4-4-4-x-|-2-2-2-x-2-2-2-x--|
|-7-7-7-x-7-7-7-x-|-6-6-6-x-4-4-4-x-|-4-4-4-x-4-4-4-x-|-2-2-2-x-2-2-2-x--|
|-8-8-8-x-8-8-8-x-|-7-7-7-x-6-6-6-x-|-5-5-5-x-5-5-5-x-|-3-3-3-x-3-3-3-x--|
|-7-7-7-x-7-7-7-x-|-6-6-6-x-5-5-5-x-|-4-4-4-x-4-4-4-x-|-2-2-2-x-2-2-2-x--|
|-9-9-9-x-9-9-9-x-|-8-8-8-x-6-6-6-x-|-6-6-6-x-6-6-6-x-|-4-4-4-x-4-4-4-x--|
|-7-7-7-x-7-7-7-x-|-6-6-6-x---------|-4-4-4-x-4-4-4-x-|-2-2-2-x-2-2-2-x--|


  Cb7               Bb7               Ab7               Gb7
  E E E E E E E E   E E E E E E E E   E E E E E E E E   E E E E E E E E
|-7-7-7-x-7-7-7-x-|-6-6-6-x-6-6-6-x-|-4-4-4-x-4-4-4-x-|-2-2-2-x-2-2-2-x--|
|-7-7-7-x-7-7-7-x-|-6-6-6-x-6-6-6-x-|-4-4-4-x-4-4-4-x-|-2-2-2-x-2-2-2-x--|
|-8-8-8-x-8-8-8-x-|-7-7-7-x-7-7-7-x-|-5-5-5-x-5-5-5-x-|-3-3-3-x-3-3-3-x--|
|-7-7-7-x-7-7-7-x-|-6-6-6-x-6-6-6-x-|-4-4-4-x-4-4-4-x-|-2-2-2-x-2-2-2-x--|
|-9-9-9-x-9-9-9-x-|-8-8-8-x-8-8-8-x-|-6-6-6-x-6-6-6-x-|-4-4-4-x-4-4-4-x--|
|-7-7-7-x-7-7-7-x-|-6-6-6-x-6-6-6-x-|-4-4-4-x-4-4-4-x-|-2-2-2-x-2-2-2-x--|


  Cb7               Bb7     A7       Ab7              Gb7
  E E E E E E E E   E E E E E E Q    E E E E E E Q    E E E E E E Q
|-7-7-7-x-7-7-7-x-|-6-6-6-6-5------|-4-4-4-4-4------|-2-2-2-2-2-------|
|-7-7-7-x-7-7-7-x-|-6-6-6-6-5------|-4-4-4-4-4------|-2-2-2-2-2-------|
|-8-8-8-x-8-8-8-x-|-7-7-7-7-6------|-5-5-5-5-5------|-3-3-3-3-3-------|
|-7-7-7-x-7-7-7-x-|-6-6-6-6-5------|-4-4-4-4-4------|-2-2-2-2-2-------|
|-9-9-9-x-9-9-9-x-|-8-8-8-8-7------|-6-6-6-6-6------|-4-4-4-4-4-------|
|-7-7-7-x-7-7-7-x-|-6-6-6-6-5------|-4-4-4-4-4------|-2-2-2-2-2-------|


                                    Bridge
                                  Straight Q=112
  E7               Eb7               Fm              Bbm
  E E E E E E Q    E E E E E E Q     Q  E E E Q  E   Q  E E E Q  E
|----------------|----------------||-1--1-1-1-1--1-|-1--1-1-1-1--1--|
|-5-5-5-5-5------|-4-4-4-4-4------||-1--1-1-1-1--1-|-2--2-2-2-2--2--|
|-7-7-7-7-7------|-6-6-6-6-6------||-1--1-1-1-1--1-|-3--3-3-3-3--3--|
|-6-6-6-6-6------|-5-5-5-5-5------||-3--3-3-3-3--3-|-3--3-3-3-3--3--|
|-7-7-7-7-7------|-6-6-6-6-6------||-3--3-3-3-3--3-|-1--1-1-1-1--1--|
|----------------|----------------||-1--1-1-1-1--1-|----------------|


                                Shuffle Q=112(8=s8)
  Gb              Eb7             Ab7             Gb7
  Q  E E

Sprained Ankle Tabs – Julien Baker

 -------------------------------------------------------------------------------
                             SPRAINED ANKLE - Julien Baker
-------------------------------------------------------------------------------
: ibcamwhobu

Tuning: Drop D

There's more to the song but this is the simple part that goes throughout the whole song.


e|-------------------------------------|
B|---+7-------+7-------+7-------+7-----|
G|------+7-------+7-------+7-------+7--|
D|-------------------------------------|
A|-------------------------------------|
D|-0--------0--------9--------9--------|


e|-------------------------------------|
B|---+7-------+7-------+7-------+7-----|
G|------+7-------+7-------+7-------+7--|
D|-------------------------------------|
A|-7--------7--------------------------|
D|-------------------5--------5--------|


Legend:
************************************
| +  harmonic notes
************************************

End Of Me Tabs – A Day To Remember Vsion 4

 Intro-Verse (Clean Guitar)
E----------------------------------------------------------------------------------------------------
B--3-----3-------------------------------------------------------------------------------------------
G----4-2---4--2---2-2----1---2-1---1---2-1-----------------------------------------------------------
D---------------4-----4----2-----2---2-----2---------------------------------------------------------
A--2-------------------------------------------------------------------------------------------------
E-------------2----------0---------------------------------------------------------------------------(6x)



Chorus (1st Guitar)
E----------------------------------------------------------------------------------------------------
B----------------------------------------------------------------------------------------------------
G----------------------------------------------------------------------------------------------------
D--4444--4444--2222----------------------------------------------------------------------------------
A--2222--4444--2222----------------------------------------------------------------------------------
E--2222--2222--0000----------------------------------------------------------------------------------(3x)


Chorus (2nd Guitar)
E-------------------------------------------------------------------------------------------------------
B-------------------------------------------------------------------------------------------------------
G--16-16-14-14-13-14/14---------------------------------------------------------------------------------
D-------------------------------------------------------------------------------------------------------
A--14-14-12-12-11-11/12---------------------------------------------------------------------------------
E-------------------------------------------------------------------------------------------------------(3x)




Oh, You'll be the end of me...(2nd Verse) (1st guitar) Clean Guitar
E----------------------------------------------------------------------------------------------------
B--3-----3-------------------------------------------------------------------------------------------
G----4-2---4--2---2-2----1---2-1---1---2-1-----------------------------------------------------------
D---------------4-----4----2-----2---2-----2---------------------------------------------------------
A--2-------------------------------------------------------------------------------------------------
E-------------2----------0---------------------------------------------------------------------------



Solo-2nd Verse   (2nd Guitar)   (Delay)                                                              Pre Chorus
E-----------------------------------------------------------------------------------------------------
B-----------------------------------------------------------------------------------------------------
G--6/7-9-7-6-11-9-9-----------------------------------------------------------------------------------     
D-------------------11-9----------------------------------------------------------2-------------------
A---------------------------------------------------------------------------------2--------------------
E---------------------------------------------------------------------------------0--------------------(4x)


Chorus (1st Guitar)
E----------------------------------------------------------------------------------------------------
B----------------------------------------------------------------------------------------------------
G----------------------------------------------------------------------------------------------------
D--4444--4444--2222----------------------------------------------------------------------------------
A--2222--4444--2222----------------------------------------------------------------------------------
E--2222--2222--0000---------------------------------------------------------------------------

Prey Tabs – The Neighbourhood Vsion 4

 -------------------------------------------------------------------------------
                             PREY - THE NEIGHBOURHOOD
-------------------------------------------------------------------------------
: Dale 

Tuning: Standard

First tab uploaded to here, hope you enjoy!!

Intro

e|-----5-----5------5-----5-----7-----7-----7-----7-----5-----5----5-----5---------------|
B|-------6-----6------5-----5-----8-----8-----8-----8-----6-----6----5-----5-------------|
G|---------7-----7------5-----5-----7-----7-----7-----7-----7----7-----5-----5-----------|
D|---------------------------------------------------------------------------------------|
A|---------------------------------------------------------------------------------------|
E|---------------------------------------------------------------------------------------|

e|-----3-----3-----5-----3---------|
B|-------5-----5-----5-----5-------|
G|---------5-----5-----5-----5-----|   x 2
D|---------------------------------|
A|---------------------------------|
E|---------------------------------|

Main Riff (Verse) 

This sounds best when picked, though can be strummed.

Play this during the verse.

e|---5---5-----5---5---------5-------8---7---5-----5---5--------5---3---3----------3-------|
B|---6---6-----6---6---------6-------6---6---6-----5---5--------5---5---5----------5-------|
G|---7---7-----7---7------7----------7---7---7-----5---5--------5---5---5----------5-------|
D|-----------------------------------------------------------------------------------------|
A|-----------------------------------------------------------------------------------------|
E|-----------------------------------------------------------------------------------------|


(Intro)


Dm  Am  C


[Verse 1] - MAIN RIFF HERE
   Dm
As long as you notice
    Am             C                   Dm
I'm hoping that you'll keep your heart open
                    Am     C
I'll keep mine open too
       Dm
If you don't ask, I won't tell
     Am              C
Just know that, just know that
   Dm             Am                G (single strum)
It all hurts, it all hurts just the same


[Hook]
F             Dm                 Am
Something is wrong, I can't explain
                            C
Everything changed when the birds came
Dm           F                    Am                       C
You'll never know what they might do if they catch you too early
F           Dm                  Am                    C
We need to fly ourselves before someone else tells us how
Dm           F                 Am               Am (single strum)
Something is off, I feel like prey, I feel like praying


[Verse 2] - MAIN RIFF HERE
   Dm
As long as you notice
    Am             C                   Dm
I'm hoping that you'll keep your heart open
                    Am     C
I'll keep mine open too
Dm                    Am
So, so, I'll probably take you aside
             C
And tell you what's on my mind
    Dm
But you, you'll just keep it inside
         Am                    G
Probably tell me that you're alright


[Hook]
F            Dm                  Am
Something is wrong, I can't explain
                            C
Everything changed when the birds came
Dm           F                    Am                       C
You'll never know what they might do if they catch you too early
F           Dm                  Am                    C
We need to fly ourselves before someone else tells us how
Dm           F                 Am               Am
Something is off, I feel like prey, I feel like praying


[Bridge]
G  Am F
(If I run) If I run away I'll never know
G     Am  Dm
(What you want) And if you go then I’ll never grow
G   Am F
(I'm undone) Let me slip, let me slide
G   Am  Dm
(If you run) I'll be sure to let you fly


[Hook]
F            Dm                Am
Something is off, I can't explain
                        C
You know what I mean, don't you?
Dm            F                 Am             
Something 

Good Timin Man Tabs – Whitey Morgan and the 78s

 http://whiteymorgan.com

-------------------------------------------------------------------------------
        Good Timin' Man - Whitey Morgan and the 78's
-------------------------------------------------------------------------------
Tuning: Standard 


There aren't many tabs for this band on here, and I figured I try one. This is my first attempt at 
transcribing anything, so any suggestions are greatly appreciated. Thank you.

P.S. I have Am in the chorus, but I don't think it's what is played, but it's the only thing I could get
to sound even remotely close.


Intro:

    C                          F                        C
e|---------------------------------1-----------1------------------------------|
B|------1---1---------1---1----------1---1-------1---1------1---1-------------|
G|--------0---0---------0---0----x-----2-----2-----2----------0---0-----------|
D|----2-------------2----------3-----------3--------------2-------------------|
A|--3-------------3-------------------------------------3---------------------|
E|----------------------------------------------------------------------------|
    G           C
e|------3-------------------0-------------------------------------------------|
B|--------0---0-----1-------1-------------------------------------------------|
G|----------0-------------0-0-------------------------------------------------|
D|----0-----------2---0h2-----------------------------------------------------|
A|--------------3-------------------------------------------------------------|
E|--3-------------------------------------------------------------------------|

Verses:

Three nights in old Arizona 
    C                        F
e|-------------------------------1-----1---------1----------------------------|
B|------1---1-------1---1----------1-----1---------1--------------------------|
G|--------0---0-------0---0----2-----2---------------2------------------------|
D|----2-----------2----------3----------------3-------------------------------|
A|--3-----------3-------------------------------------------------------------|
E|----------------------------------------------------------------------------|

Gotta get me outta California
    C                        F
e|-------------------------------1------------1--------------------------------|
B|------1---1-------1---1----------1---1--------1---1--------------------------|
G|--------0---0-------0---0----2-----2------2-----2----------------------------|
D|----2-----------2----------3------------3------------------------------------|
A|--3-----------3--------------------------------------------------------------|
E|-----------------------------------------------------------------------------|

Yea she's        waitin' there for me
    C             G               C
e|--------------------3-------------------------------------------------------|
B|------1---1-----------0---0----------1---1----------------------------------|
G|--------0---0-----------0--------------0---0--------------------------------|
D|----2-------------0----------------2----------------------------------------|
A|--3------------------------------3------------------------------------------|
E|----------------3-----------------------------------------------------------|
   C                       G            C
e|------------------------------3--------------------0------------------------|
B|------1---1-------1---1---------0---0------1-------1------------------------|
G|--------0---0-------0---0---------0--------------0-0------------------------|
D|----2-----------2-----------0------------2---0h2----------------------------|
A|--3-----------3------------------------3------------------------------------|
E|--------------------------3-------------------------------------------------|

Feelin' wrong but I'll get right
    C                          F
e|-----------------------------1----1------------1------------------------------|
B|--1----1---1-------1---1-----1------1---1-------

H intro Tabs – Ghost Runner on Third

 -------------------------------------------------------------------------------
                             H - Ghost Runner on Third
-------------------------------------------------------------------------------
: ethanc07

Tuning: Standard

I couldn't find any tabs for Ghost Runner on Third anywhere online and I'm a 
big fan of Jonny Craig and all his work so I decided to make my own. 
I know this isn't much but it's better than nothing.


Guitar I
e|-----------------------------------|
B|-----------------------------------|
G|--2-2--4--2--4h5p4p0---------------|   x8
D|-----------------------------------|
A|-----------------------------------|
E|-----------------------------------|


Guitar II
e|-----------------------------------|---------------------------------------|
B|-----------------------------------|---------------------------------------|
G|---2---4---5---4---7---5---4---5---|---2---4---5---4---7---5---4---5-------|
D|-----------------------------------|---------------------------------------|
A|-----------------------------------|---------------------------------------|
E|-----------------------------------|---------------------------------------|

e|-----------------------------------|---------------------------------------|
B|-----------------------------------|---------------------------------------|
G|---2---4---5---4---7---5---4---5---|---7---5---7---9---12------------------|
D|-----------------------------------|---------------------------------------|
A|-----------------------------------|---------------------------------------|
E|-----------------------------------|---------------------------------------|


e|---------------------------------------------------------------------------|
B|---------------------------------------------------------------------------|
G|---4---5---12-------4---5---12-------4---12----2------4---12----2----------|   x2
D|---------------------------------------------------------------------------|
A|---------------------------------------------------------------------------|
E|---------------------------------------------------------------------------|




************************************

| /   slide up
| \   slide down
| h   hammer-on
| p   pull-off
| ~   vibrato
| +   harmonic
| x   Mute note
| b   Bend
| pb  Pre-bend
| br  Bend release
| pbr Pre-bend release
| brb Bend release bend

************************************

Somebodys Talking Tabs – The Preatures

 -------------------------------------------------------------------------------
                             Somebody's Talking - The Preatures
-------------------------------------------------------------------------------
: Lucke


Tuning: Standard

OK so there are two guitars playing the same thing but on different strings.

G1

e|---------------------|---------|---------|----------|------------------------|-A---------------------------|
B|---------------------|---------|---------|-add------|-------------6-6-5-5-5--|-variation------------6-6----|
G|---------------------|-repeat -|-------5-|-this-----|-------------5-5-5-5-5--|-used-----------------5-5----|
D|----5h7-----5-----5--|---a-----|----5h7--|-in-------|----5-----5-------------|-here------5-------5---------|
A|-5/7-----3-3-3-3-3---|--few ---|-5/7-----|-on-------|-3-3-3-3-3--------------|-is ------3-3-3-3-3----------|
E|---------------------|-times---|---------|-occasion-|------------------------|-just------------------------|

OK so that is pretty much Guitar 1's verse section.

Here is Guitar 2's which comes in a little later.

G2

e|-------------------------|-R-|--------------|-V-|-----------------------------|----------------------------|
B|-------------------------|-E-|--------------|-A-|-----------------------------|----------------------------|
G|-------------------------|-P-|--------------|-R-|--------------10-10-9--9--9--|--OR...--------------10-10--|
D|-------------------------|-E-|-----------10-|-I-|--------------10-10-10-10-10-|---------------------10-10--|
A|------10h12----10-----10-|-A-|------10h12---|-A-|----10-----10----------------|-----------10-----10--------|
E|-10/12------8-8--8-8-8---|-T-|-10/12--------|-T-|-8-8--8-8-8------------------|--------8-8--8-8-8----------|
                                                I
                                                O
                                                N

Next up for the pre-chorus is power chords of C, D and A#. 
Listen to the song for the strumming pattern.

G1

   CCC/D          DDD/C      CC/D/A#       A#A#/D/C         Cx8
e|---------------------------------------------------------------------------|
B|---------------------------------------------------------------------------|
G|-5-5-5-/-7-----7-7-7-/-5---5-5-/-7-/-3---3-3-/-7-/-5------5-5-5-5-5-5-5-5--|
D|-5-5-5-/-7-----7-7-7-/-5---5-5-/-7-/-3---3-3-/-7-/-5------5-5-5-5-5-5-5-5--|
A|-3-3-3-/-5-----5-5-5-/-3---3-3-/-5-/-1---1-1-/-5-/-3------3-3-3-3-3-3-3-3--|
E|---------------------------------------------------------------------------|

G2, if you choose to have two guitars then G2 would be playing this most likely...

e|----------------------------------------------------------------------------------------------------------|
B|----------------------------------------------------------------------------------------------------------|
G|----------------------------------------------------------------------------------------------------------|
D|-10-10-10-/-12-----12-12-12-/-10----10-10-/-12--/-8----8-8-/-12-/-10----10-10-10-10-10-10-10-10-----------|
A|-10-10-10-/-12-----12-12-12-/-10----10-10-/-12--/-8----8-8-/-12-/-10----10-10-10-10-10-10-10-10-----------|
E|-8--8--8--/-10-----10-10-10-/-8-----8--8--/-10--/-6----6-6-/-10-/-8-----8--8--8--8--8--8--8--8------------|

CHORUS TIME BABY.

Really simple A# then Dm then C played in Barre chords. Again you can figure the strumming pattern out.

So that is:

A#:         Dm:      C:

e|--6-------5--------3-----------------------------------------------------------|
B|--6-------6--------5-----------------------------------------------------------|
G|--7-------7--------5-----------------------------------------------------------|
D|--8-------7--------5-----------------------------------------------------------|
A|--8-------5--------3-----------------------------------------------------------|
E|--6----------------------------------------------------------------------------|

T

Refusal Tabs – Strike Anywhere Vsion 2

 Lead guitar is first part attached, rhythm guitar is second part. One part means both guitars play the same
thing. Lyrics on bottom of the tab for ease of mind.

Intro: e|--------------------------------------5555---------------------|
       B|-3~-035~-357-7777777777777777\33333333----55557777777777777777-|
       G|---------------------------------------------------------------| X2
       D|---------------------------------------------------------------|
       A|---------------------------------------------------------------|
       E|---------------------------------------------------------------|
       |
       e|---------------------------------------------------------------|
       B|---------------------------------------------------------------|
       G|--------------------------------------7777---------------------| X2
       D|------------------------------55555555777777779999999999999999-|
       A|------------------------------55555555555577779999999999999999-|
       E|------------------------------33333333----55557777777777777777-|

Verse: e|---------------------------------------------------------------------|
       B|---------------------------------------------------------------------|
       G|--------------------7777777777777777--------7777---------------------| X2
       D|-9~-9-999-999-999-99777777777777777755555555777777779999999999999999-|
       A|-9~-9-999-999-999-99555555555555555555555555555577779999999999999999-|
       E|-7~-7-777-777-777-77----------------33333333----55557777777777777777-|

Chorus: e|-5-55555h7p5p3--2-22222h3p2p0-------------------------------------|
        B|--------------------------------3-333333-5-555555-7-7777777777777-|
        G|------------------------------------------------------------------| X2
        D|------------------------------------------------------------------|
        A|------------------------------------------------------------------|
        E|------------------------------------------------------------------|
        |
        e|------------------------------------------------------------------|
        B|------------------------------------------------------------------|
        G|-7-777-777-777-776-666-666-666-66--------7-77---------------------| X2
        D|-7-777-777-777-776-666-666-666-665-555-557-777-779-999-999-999-99-|
        A|-5-555-555-555-554-444-444-444-445-555-555-557-779-999-999-999-99-|
        E|---------------------------------3-333-33----5-557-777-777-777-77-|

Pre-Verse: e|----------------------------------------------5555---------------------|
           B|-3-3333-035-5555-357-7777777777777777\33333333----55557777777777777777-|
           G|-----------------------------------------------------------------------| X2
           D|-----------------------------------------------------------------------|
           A|-----------------------------------------------------------------------|
           E|-----------------------------------------------------------------------|
           |
           e|-----------------------------------------------------------------------|
           B|-----------------------------------------------------------------------|
           G|----------6-6666--67-7777777777777777---------7777---------------------| X2
           D|-9-9999-796-6666-967-7777777777777777-55555555777777779999999999999999-|
           A|-9-9999-794-4444-945-5555555555555555-55555555555577779999999999999999-|
           E|-7-7777-57-------7--------------------33333333----55557777777777777777-|

Verse: e|---------------------------------------------------------------------|
       B|---------------------------------------------------------------------|
       G|--------------------7777777777777777--------7777---------------------|
       D|-9~-9-999-999-999-99777777777777777755555555777777779999999999999999-|
       A|-9~-9-999-999-999-99555555555555555555555555555577779999999999999999-|
       E|-7~-7-777-777-777-77--------

No Death Tabs – Mirel Wagner

 -------------------------------------------------------------------------------
                             NO DEATH - Mirel Wagner
-------------------------------------------------------------------------------
Fingerpicking pattern

Capo 4th fret
Chord shapes resp. to capo


Intro and Verse:

      Am                                             Dm (just lift 2nd finger)
e|---------------------------------------------------------------------------|
B|----------5-----------------------5------------------------5---------------|
G|-------6------------6---------6------------6-----------6------------6------|
D|---------------------------------------------------0------------0----------|
A|---0------------0---------0------------0-----------------------------------|
E|---------------------------------------------------------------------------|
     Am                     Dm                  Am
e|---------------------------------------------------------------------------|
B|------------5-------------------5--------------------5---------------------|
G|--------6-----------6--------6---------6---------6-------------6-----------|
D|----6-----------6---------0---------0--------6-------------6---------------|
A|---------------------------------------------------------------------------|
E|---------------------------------------------------------------------------|
   Em                   Am
e|---------------------------------------------------------------------------|
B|---------0------------------5----------------------------------------------|
G|------0---------0--------6----------6--------------------------------------|
D|---------------------------------------------------------------------------|
A|----------------------0---------0------------------------------------------|
E|--0---------0--------------------------------------------------------------|


Chorus:

 3x       C                                         G
e|---------------------------------------------------------------------------|
B|---------------5--------------------5-------------------0------------------|
G|-----------0-----------0--------0-----------0--------0-----------0---------|
D|---------------------------------------------------------------------------|
A|---6----7-----------7--------7-----------7--------6-----------6------------|
E|---------------------------------------------------------------------------|

e|---------------------------------------------------------------------------|
B|---------0-----------------------------------------------------------------|
G|------0--------0-----------------------------------------------------------|
D|---------------------------------------------------------------------------|
A|---6--------6--------------------------------------------------------------|
E|---------------------------------------------------------------------------|

3x    Am                 Em
e|---------------------------------------------------------------------------|
B|----------5-------------------0--------------------------------------------|
G|-------6--------6----------0-----------0-----------------------------------|
D|---------------------------------------------------------------------------|
A|----0-------0--------------------------------------------------------------|
E|-----------------------0-----------0---------------------------------------|
2x    Am
e|---------------------------------------------------------------------------|
B|-----------5---------------------------------------------------------------|
G|--------6---------6--------------------------------------------------------|
D|---------------------------------------------------------------------------|
A|---------------------------------------------------------------------------|
E|----0----------0-----------------------------------------------------------|


Else Tabs – Dog & Panther

 -------------------------------------------------------------------------------
                             ELSE - Dog & Panther
-------------------------------------------------------------------------------

C: 032010
F: --3211
Fmaj7: 003210
Em: 022000
G: 320003

      C
e|---------------------------------------------------
B|-----------1-----------1------------1-----------1--
G|-----0-----------0------------0-----------0--------
D|--------2-----------2------------2-----------2-----
A|--3-----------3------------3-----------3-----------
E|---------------------------------------------------
      F                        Fmaj7
e|-----------1-----------1------------0-----------0--
B|-----1-----------1------------1-----------1--------
G|--------2-----------2------------2-----------2-----
D|--3-----------3------------3-----------3-----------
A|---------------------------------------------------
E|---------------------------------------------------
      Em                       G
e|------------------------------------3-----------3--
B|-----------0-----------0---------------------------
G|-----0-----------0---------------------------------
D|--------2-----------2---------0-----------0--------
A|--2-----------2------------------2-----------2-----
E|---------------------------3-----------3-----------
Strum C on the last word

One is best
One is best
Two is so much sweeter
April's cold water falling
The dotted yellow line
Guides me back to bed

If this is life
This is life
Always moving on
No time for myself
Here is now
Who picks up my pieces

If this is it
This is it
All was well
I won’t get another chance
I can still feel her hands
I thought I found her

But she won’t
But she won’t
Think about the future
Or get a steady job
She's so much like my mom
Go now

Hold someone else

************************************

Ifwhiteamericatoldthetruthforonedayitsworldwouldfallapart Tabs – Manic Street Preachers Vsion 2

 Enjoy!


E|---------------------------------|---------------------------------|---------------------------------|
B|---------------------------------|---------------------------------|---------------------------------|
G|---------------------------------|---------------------------------|---------------------------------|
D|-----------------2---4-----------|---------2---4-------------------|-2---4-------------------2---4---|
A|---------2---4-------------------|-2---4-------------------2---4---|-----------------2---4-----------|
E|-2---4-------------------2---4---|-----------------2---4-----------|---------2---4-------------------|


E|---------------------------------|---------------------------------|---------------------------------|
B|---------------------------------|---------------------------------|---------------------------------|
G|-----------------0---------------|-----------------0---------------|-----------------0---------------|
D|-------------6-------6-------6---|-------------6-------6-------6---|-------------6-------6-------6---|
A|---------7---------------7-------|---------7---------------7-------|---------7---------------7-------|
E|-0---0---------------------------|-0---0---------------------------|-0---0---------------------------|


E|---------------------------------|---------------------------------|---------------------------------|
B|---------------------------------|---------------------------------|---------------------------------|
G|-----------------0---------------|-----------------0---------------|-----------------0---------------|
D|-------------6-------6-------6---|-------------6-------6-------6---|-------------6-------6-------6---|
A|---------7---------------7-------|---------7---------------7-------|---------7---------------7-------|
E|-0---0---------------------------|-0---0---------------------------|-0---0---------------------------|


E|---------------------------------|---------------------------------|---------------------------------|
B|---------------------------------|---------------------------------|---------------------------------|
G|-----------------0---------------|-----------------0---------------|-----------------0---------------|
D|-------------6-------6-------6---|-------------6-------6-------6---|-------------6-------6-------6---|
A|---------7---------------7-------|---------7---------------7-------|---------7---------------7-------|
E|-0---0---------------------------|-0---0---------------------------|-0---0---------------------------|


E|---------------------------------|---------------------------------|---------------------------------|
B|---------------------------------|---------------------------------|---------------------------------|
G|-----------------0---------------|-----------------0---------------|-----------------0---------------|
D|-------------6-------6-------6---|-------------6-------6-------6---|-------------6-------6-------6---|
A|---------7---------------7-------|---------7---------------7-------|---------7---------------7-------|
E|-0---0---------------------------|-0---0---------------------------|-0---0---------------------------|


E|---------------------------------|---------------------------------|---------------------------------|
B|---------------------------------|---------------------------------|---------------------------------|
G|-----------------0---------------|-----------------0---------------|-----------------0---------------|
D|-------------6-------6-------6---|-------------6-------6-------6---|-------------6-------6-------6---|
A|---------7---------------7-------|---------7---------------7-------|---------7---------------7-------|
E|-0---0---------------------------|-0---0---------------------------|-0---0---------------------------|


E|---------------------------------|---------------------------------|---------------------------------|
B|---------------------------------|---------------------------------|----------------

Jane Tabs – kaleido

 Underrated band and song that is quite simple to play and reminiscent of No Doubt among other bands.

Intro: e|------------------------------------------------------------------|
       B|------------------------------------------------------------------|
       G|-x-6-x-6---------x-9-x-9---------x-6-x-6---------x-9-x-9----------|
       D|-x-6-x-6-x-7-x-7-x-9-x-9-x-9-x-9-x-6-x-6-x-7-x-7-x-9-x-9-99999999-|
       A|-x-4-x-4-x-7-x-7-x-7-x-7-x-9-x-9-x-4-x-4-x-7-x-7-x-7-x-7-99999999-|
       E|---------x-5-x-5---------x-7-x-7---------x-5-x-5---------77777777-|

Verse: e|------------------------------------------------------------------|
       B|------------------------------------------------------------------|
       G|-x-6-x-6---------x-9-x-9---------x-6-x-6---------x-9-x-9----------| X2
       D|-x-6-x-6-x-7-x-7-x-9-x-9-x-9-x-9-x-6-x-6-x-7-x-7-x-9-x-9-99999999-|
       A|-x-4-x-4-x-7-x-7-x-7-x-7-x-9-x-9-x-4-x-4-x-7-x-7-x-7-x-7-99999999-|
       E|---------x-5-x-5---------x-7-x-7---------x-5-x-5---------77777777-|

          She knows me dirty secrets, and she's always right here by my side whispering alibis.

          Devious and bittersweet, when I sleep she's all I see the naughty silhouette in my dreams OH-OH!

Pre-Chorus: e|--------------------------------------------|
            B|--------------------------------------------|
            G|-x-6-x-6---------x-9-x-9--------------------|
            D|-x-6-x-6-x-7-x-7-x-9-x-9-x-9-x-9-4~-6-7~-9~-|
            A|-x-4-x-4-x-7-x-7-x-7-x-7-x-9-x-9-4~-6-7~-9~-|
            E|---------x-5-x-5---------x-7-x-7-2~-4-5~-7~-|

               Her deception haunts my reflection. She's alive behind my eyes.

Chorus: e|----------------------------------|
        B|----------------------------------|
        G|-6666-----------------------------| X4
        D|-66669999777766664444444466667777-|
        A|-44449999777766664444444466667777-|
        E|-----7777555544442222222244445555-|

           Hey hey! She won't go away-ay, floodin' through my 

           vei-ei-ei-eins. Had my mind with her intentions.

           Hey hey! The voice inside my brai-ain, she keeps me 

           insa-a-a-ane. Dearest Jane, what's your intention?

        e|------------------|     e|------------------|
        B|------------------|     B|------------------|
        G|-6666-------------| X3  G|------------------|
        D|-6666777766664444-|     D|-4444444466666666-|
        A|-4444777766664444-|     A|-4444444466666666-|
        E|-----555544442222-|     E|-2222222244444444-|

           Hey-yo, Jane is why I'm

           stable. My twisted little 

           angel-whoa-oh

           Dearest Jane, what's your intention?

        e|------------------------------------------------------------------|
        B|------------------------------------------------------------------|
        G|---------------------------------666666666666666699999999---------|
        D|-7777777777777777999999999999999966666666666666669999999999999999-|
        A|-7777777777777777999999999999999944444444444444447777777799999999-|
        E|-55555555555555557777777777777777------------------------77777777-|

           Hey-oh-whoa-oh, hey-oh-whoa-oh. Tell me if I'm lo-sing con-trol

Pre-Verse: e|--------------------------------------------------------------|
           B|--------------------------------------------------------------|
           G|-x-6-x-6---------x-9-x-9-----x-6-x-6---------x-9-x-9----------|
           D|-x-6-x-6-x-7-x-7-x-9-x-9-9-x-x-6-x-6-x-7-x-7-x-9-x-9-99999999-|
           A|-x-4-x-4-x-7-x-7-x-7-x-7-9-x-x-4-x-4-x-7-x-7-x-7-x-7-99999999-|
           E|---------x-5-x-5---------7-x---------x-5-x-5---------77777777-|

                                  I'm lo-sing...control (this time)

Verse: e|------------------------------------------------------------------|
       B|------------------------------------------------------------------|
       G|-x-6-x-6---------x-9-x-9---------x-6-x-6---------x-9-x-

Irresistible Tabs – Fall Out Boy Vsion 1

 Fall out boy - Irresistible
 so if it's fucked up 
I'm sorry

Intro+Verse

E)-----------------2-5-2-5-----------| 
A)--0-2-0-2-2-5-2-5------------------|
D)-------------------------0-2-0-2--0|
G)-----------------------------------|
B)-----------------------------------|
e)-----------------------------------|
                                      x8

Pre-chorus

E)3----2----0|
A)5----5----2|
D)5----5----2|
G)4----4----0|
B)3----2----0|
e)3----2----0|

Chorus

E)x-x-7-7-7-5-5-5-3-3-3-3|
A)x-x-9-9-9-7-7-7-5-5-5-5|
D)x-x-9-9-9-7-7-7-5-5-5-5|
G)x-x-7-7-7-5-5-5-3-3-3-3|
B)x-x--------------------|
e)x-x--------------------|
                         x2

Guitar 1
E)7-7-7-7-10-10-10-10-5-5-5-5-12-12-12-12|
A)9-9-9-9-12-12-12-12-7-7-7-7-14-14-14-14|
D)9-9-9-9-12-12-12-12-7-7-7-7-14-14-14-14|
G)7-7-7-7-10-10-10-10-5-5-5-5-12-12-12-12|
B)---------------------------------------|
e)---------------------------------------|
                                         x2

Guitar 2

E)-----------------2-5-2-5-----------| 
A)--0-2-0-2-2-5-2-5------------------|
D)-------------------------0-2-0-2--0|
G)-----------------------------------|
B)-----------------------------------|
e)-----------------------------------|
                                     x2

Verse

E)-------|---------------2-5-2-5----------|
A)0-2-0-2|0-2-0-2-2-5-2-5-----------------|
D)-------|----------------------0-2-0-2--0|
G)-------|--------------------------------|
B)-------|--------------------------------|
e)-------|--------------------------------|
       x2                                x6

Pre-chorus

E)3----2----0|
A)5----5----2|
D)5----5----2|
G)4----4----0|
B)3----2----0|
e)3----2----0|

Chorus

E)x-x-7-7-7-5-5-5-3-3-3-3|
A)x-x-9-9-9-7-7-7-5-5-5-5|
D)x-x-9-9-9-7-7-7-5-5-5-5|
G)x-x-7-7-7-5-5-5-3-3-3-3|
B)x-x--------------------|
e)x-x--------------------|
                         x2

Guitar 1
E)7-7-7-7-10-10-10-10-5-5-5-5-12-12-12-12|
A)9-9-9-9-12-12-12-12-7-7-7-7-14-14-14-14|
D)9-9-9-9-12-12-12-12-7-7-7-7-14-14-14-14|
G)7-7-7-7-10-10-10-10-5-5-5-5-12-12-12-12|
B)---------------------------------------|
e)---------------------------------------|
                                         x2

Guitar 2

E)-----------------2-5-2-5-----------| 
A)--0-2-0-2-2-5-2-5------------------|
D)-------------------------0-2-0-2--0|
G)-----------------------------------|
B)-----------------------------------|
e)-----------------------------------|
                                     x2

Bridge 
Don't play until Patrick comes in

Guitar 1

E)---|-------------|
A)---|-------------|
D)---|-------------|
G)---|-------------|
B)---|--------15-12|
e)-14|-14-12-------|
   x16

E)----------------------------|
A)----------------------------|
D)----------------------------|
G)--------------11-9-11-------|
B)--12-10h12----------------12|
e)-----------------------10---|

E)-------------------------------------|
A)-------------------------------------|
D)-------------------------------------|
G)-------------------------------------|
B)-10h12----12-10----7----3/5/7b7-5-3-0|
e)-------10----------------------------|


Guitar 2

E)-----------------2-5-2-5-----------| 
A)--0-2-0-2-2-5-2-5------------------|
D)-------------------------0-2-0-2--0|
G)-----------------------------------|
B)-----------------------------------|
e)-----------------------------------|
                                     x2

Pre-chorus

E)3----2----0|
A)5----5----2|
D)5----5----2|
G)4----4----0|
B)3----2----0|
e)3----2----0|

Chorus

E)x-x-7-7-7-5-5-5-3-3-3-3|
A)x-x-9-9-9-7-7-7-5-5-5-5|
D)x-x-9-9-9-7-7-7-5-5-5-5|
G)x-x-7-7-7-5-5-5-3-3-3-3|
B)x-x--------------------|
e)x-x--------------------|
                         x2

Guitar 1
E)7-7-7-7-10-10-10-10-5-5-5-5-12-12-12-12|
A)9-9-9-9-12-12-12-12-7-7-7-7-14-14-14-14|
D)9-9-9-9-12-12-12-12-7-7-7-7-14-14-14-14|
G)7-7-7-7-10-10-10-10-5-5-5-5-12-12-12-12|
B)---------------------------------------|
e)---------------------------------------|
                     

Chloe intro Tabs – Little Brother Vsion 2

 -------------------------------------------------------------------------------
                             CHLOE - Little Brother
-------------------------------------------------------------------------------
: Thomas Harrison
 tomjar8.au

Tuning: E standard
Capo: 2nd fret

e|-------------5--2-2h3p2-0----------|
B|---3p0-3s5----------------0--------|
G|-----------------------------------|
D|-----------5-----------------------|
A|-3---------------------------------|
E|-----------------------------------|

e|---------------5---2-2h3p2-0-------|
B|-----3p0-3s5----------------0------|
G|-----------------------------------|
D|--0h2--------5---------------------|
A|-3---------------------------------|
E|-----------------------------------|

Just my take on the intro, John's version probably isn't exactly like this.

************************************

| /   slide up
| \   slide down
| h   hammer-on
| p   pull-off
| ~   vibrato
| +   harmonic
| x   Mute note
| b   Bend
| pb  Pre-bend
| br  Bend release
| pbr Pre-bend release
| brb Bend release bend

************************************

Well Be Okay Tabs – With Confidence

 With Confidence
   We'll Be Okay

By: AJ Booker

Guitar 1: Luke
Guitar 2: Ini

VERSE:
Guitar 1 and 2:
e|-----------------------------|
B|-----------------------------|
G|--7-7---4-4---2-2------------|
D|--7-7---4-4---2-2---5-5-555--|
A|--5-5---2-2---0-0---5-5-555--|
E|--------------------3-3-333--| x3

e|---------------------|
B|---------------------|
G|--7-7---4-4---2------|
D|--7-7---4-4---2-hold-|
A|--5-5---2-2---0------|
E|---------------------|

e|-----------------------------|
B|-----------------------------|
G|--7-7---4-4---2-2------------|
D|--7-7---4-4---2-2---5-5-555--|
A|--5-5---2-2---0-0---5-5-555--|
E|--------------------3-3-333--| x4


Over the second and last time repeated, Guitar 2 plays:
e|---------------------------------------------|
B|-----15-14-10--------------15-14-10----------|
G|---14----------16-14-----14------------------|
D|-12----------12--------12----------12-14-12--|
A|---------------------------------------------|
E|---------------------------------------------|


PRECHORUS:
Guitar 1 only
e|------------|
B|------------|
G|-6/7-7-6-7--|
D|-6/7-7-6-7--|
A|-4/5-5-4-5--|
E|------------| x3

CHORUS:
Guitar 1 and 2:
e|--------------------------------------|
B|--------------------------------------|
G|-77777777-44444444----------22222222--|
D|-77777777-44444444-55555555-22222222--|
A|-55555555-22222222-55555555-00000000--|
E|-------------------33333333-----------| x2

2ND VERSE (intro):
Guitar 1:
e|--------------------------------------------------|
B|--------------------------------------------------|
G|--7-7---4-4---2-2--------------7-7---4-4---2------|
D|--7-7---4-4---2-2---5-5-555----7-7---4-4---2-hold-|
A|--5-5---2-2---0-0---5-5-555----5-5---2-2---0------|
E|--------------------3-3-333-----------------------|

Guitar 2:
e|---------------------------------------------|
B|-----15-14-10--------------15-14-10----------|
G|---14----------16-14-----14------------------|
D|-12----------12--------12----------12-14-12--|
A|---------------------------------------------|
E|---------------------------------------------|

I'm not too sure what the play during the actual verse, but I just play the
chords from the intro but palm muted and 4 times on each like:
e|----------------------|
B|----------------------|
G|-7777-4444-2222-------|
D|-7777-4444-2222-5555--|
A|-5555-2222-0000-5555--|
E|----------------3333--| x2
   **** **** **** ****

PRECHORUS:
Guitar 1 only
e|-------****---------****---------****-----------------------|
B|-------****---------****---------****-----------------------|
G|-6/7-7-****---6/7-7-****---6/7-7-****--7--------------------|
D|-6/7-7-****---6/7-7-****---6/7-7-****--7--------------------|
A|-4/5-5-****---4/5-5-****---4/5-5-****--5-hold---------------|
E|-------****---------****---------****----------*pickslide*--|

CHORUS:
Guitar 1 and 2:
e|--------------------------------------|
B|--------------------------------------|
G|-77777777-44444444----------22222222--|
D|-77777777-44444444-55555555-22222222--|
A|-55555555-22222222-55555555-00000000--|
E|-------------------33333333-----------| x2

BRIDGE:
Guitar 1 and 2:
e|------------------------------------------------|
B|------------------------------------------------|
G|-7-4-7-----7-4-7-6---7-4-7-----7-4-7-6--7777777-|
D|-7-4-7-----7-4-7-6---7-4-7-----7-4-7-6--7777777-|
A|-5-2-5-----5-2-5-4---5-2-5-----5-2-5-4--5555555-|
E|------------------------------------------------|
                                          *******


CHORUS:
Guitar 1 and 2:
e|----------------------------------------------------------------------------|
B|----------------------------------------------------------------------------|
G|-7-7-4-4--44444444----------22222222--77777777-44444444----------22222222---|
D|-7-7-4-4--44444444-55555555-22222222--77777777-44444444-55555555-22222222---|
A|-5-5-2-2--22222222-55555555-00000000--55555555-22222222-55555555-00000000---|
E|-------------------33333333------------------------------33333333-----------|

OUTTRO:
Guita

Cowboy Casanova Tabs – Carrie Underwood Vsion 1

 Come for the Country, stay for the guitar and Rock backing plus simple solos. I could not resist the allure of
being able to use guitar.

Intro: e|-----------------------------|
       B|-----------------------------|
       G|-x-xxx-xxx-xxx-xxx-xxx-xx-xx-|
       D|-x-xxx-xxx-xxx-xxx-xxx-xx-xx-|
       A|-x-xxx-xxx-xxx-xxx-xxx-xx-xx-|
       E|-----------------------------|

       e|-------------------|     e|-----|
       B|-------------------|     B|-----|
       G|-7-x------5-5-33-x-| X3  G|-77~-|
       D|-7-x-33-x-5-5-33-x-|     D|-77~-|
       A|-5-x-33-x-3-3-11-x-|     A|-55~-|
       E|-----11-x----------|     E|-----|

Verse: e|-------------------|     e|-----|
       B|-------------------|     B|-----|
       G|-7-x------5-5-33-x-| X3  G|-77~-| (Repeat entire part twice)
       D|-7-x-33-x-5-5-33-x-|     D|-77~-|
       A|-5-x-33-x-3-3-11-x-|     A|-55~-|
       E|-----11-x----------|     E|-----|

          You better take it from me

          That boy is like a disease

          You're running, you're trying, you're trying to hide

          And you're wondering why you can't get free

          He's like a curse, he's like a drug

          You get addicted to his love

          You wanna get out, but he's holding you down 'cause you can't live without one more 

       e|--------------------------|
       B|--------------------------|
       G|-2-22-22-22-25-55-55-55-5-|
       D|-2-22-22-22-25-55-55-55-5-|
       A|-0-00-00-00-03-33-33-33-3-|
       E|--------------------------|

          touch. He's a 

Chorus: e|---------------------------------------------|
        B|---------------------------------------------|
        G|-7-5~-------------3-33-33-33-32-22-22-22-2-x-| X2
        D|-7-5~-3-33-33-33-33-33-33-33-32-22-22-22-2-x-|
        A|-5-3~-3-33-33-33-31-11-11-11-10-00-00-00-0-x-|
        E|------1-11-11-11-1---------------------------|

           good time cowboy casanova, leaning up against the record machine.

           He looks like a cool drink of water, but he's candy-coated misery

        e|--------------------------------------------------|
        B|--------------------------------------------------|
        G|-7-77-7------------------------------2-22-22-22-2-|
        D|-7-77-72-22-23-33-33-33-35-55-55-55-52-22-22-22-2-|
        A|-5-55-52-22-23-33-33-33-35-55-55-55-50-00-00-00-0-|
        E|-------0-00-01-11-11-11-13-33-33-33-3-------------|

           He's the devil in disguise, a snake with blue eyes and he only comes out at night.

        e|-------------------|
        B|-------------------|
        G|-3-33-33-33-3-5-5~-|
        D|-3-33-33-33-3-5-5~-|
        A|-1-11-11-11-1-3-3~-|
        E|-------------------|

           Gives you feelings that you don't want to fight. You better run for your

Pre-Verse: e|-------------------|     e|-----|
           B|-------------------|     B|-----|
           G|-7-x------5-5-33-x-| X3  G|-77~-|
           D|-7-x-33-x-5-5-33-x-|     D|-77~-|
           A|-5-x-33-x-3-3-11-x-|     A|-55~-|
           E|-----11-x----------|     E|-----|
 
              life

Verse: e|-------------------|     e|--------------------------|
       B|-------------------|     B|--------------------------|
       G|-7-x------5-5-33-x-| X3  G|-------------8-88-88-88-8-|
       D|-7-x-33-x-5-5-33-x-|     D|-3-33-33-33-38-88-88-88-8-|
       A|-5-x-33-x-3-3-11-x-|     A|-3-33-33-33-36-66-66-66-6-|
       E|-----11-x----------|     E|-1-11-11-11-1-------------|

          I see that look on your face

          You ain't hearing what I say

          So I'll say it again 'cause I've been where you've been and I know how it ends

          You can't get away

       e|-------------------|     
       B|-------------------|    
       G|-7-x------5-5-33-x-| X3
       D|-7-x-33-x-5-5-33-x-|   
       A|-5-x-33-x-3-3-11-x-|   
       E|-----11-x----------|   

          Don't even look in his eyes

          He'll tell you nothing but lies

          And you wanna be

People Forget Tabs – ANTEMASQUE

 Antemasque-People Forget

After this one, I'm gonna make Providence and
maybe some other Antem. tab, and soon after an ATDI tab.



Intro:
 
With delay.

  
e|------------------------------------------------------------------------------------------|
B|------------------------------------------------------------------------------------------|
G|---------------------------------------12-12-12-12/19~------------------12-12-12-12/19~---|
D|--8-8-8-8-10-10------8-8-8-8-10-10---------------------8-8-8-8-10-10----------------------|
A|----------------10-----------------10--------------------------------10-------------------|
E|------------------------------------------------------------------------------------------|


Verse:

You can play without the open G string, it'll still sound ok.
 
|-------------------------------------------------------------|
|-------------------------------------------------------------|
|-0--0------0--0------0--0--0--0-0-0-0-0-0-0-0-0-0--0-0--0-0--|x2
|-17/12~----17/11~----10-10-10-108-8-7-7-5-5-5-8-5--5-5--5-5--|
|-------------------------------------------------------------|
|-------------------------------------------------------------|


Pre-chorus:

You can play the chords without the notes on the 5th and the 6th string, 
but I added them because it sounds more melodic.

|-10-10-10-10--10-10-10-10-10-10---------------------------------------|
|-10-10-10-10--8--8--8--8--8--8----------------------------------------|
|-10-10-10-10--9--9--9--9--9--9---12-12-12-12--12-12-12-12-12-12-12-12-|
|-10-10-10-10--10-10-10-10-10-10--10-10-10-8---10-10-10-10-10-8--8--8--|
|-8--8--8--8---x--x--x--x--x--x---10-10-10-10--10-10-10-10-10-10-10-10-|
|--------------8--8--8--8--8--8----------------------------------------|


|-10-10-10-10--10-10-10-10-10-10---------------------|
|-10-10-10-10--8--8--8--8--8--8---7-7-7-7-7-7-7-7-7~-|
|-10-10-10-10--9--9--9--9--9--9---7-7-7-7-7-7-7-7-7~-|
|-10-10-10-10--10-10-10-10-10-10--7-7-7-7-7-7-7-7-7~-|
|-8--8--8--8---x--x--x--x--x--x---5-5-5-5-5-5-5-5-5~-|
|--------------8--8--8--8--8--8----------------------|


Chorus: 

With delay.

|--------------------------------------------------|
|--------------------------------------------------|
|------------------7--7-7--------------------------|
|-8--8-8------------------8-8-10--8--8-8-----------|
|--------10--10-10-----------------------10--10-10-|
|--------------------------------------------------|

|-------------------------------------------------------|
|-------------------------------------------------------|
|-7--7-7-----------7--7-7-7--------12--12-12--9--9-9-7~-|
|--------8--8-8-------------8--8-8----------------------|
|-------------------------------------------------------|
|-------------------------------------------------------|


This part is usually played by another guitar while the first lets the 7th note on the G string ring,
but it's much more simple to just play this on one guitar.

|-------------------------------------------------|
|---------11----------11----------11----------11--|
|-10--12------10--12------10--12------10--12------|
|-------------------------------------------------|
|-------------------------------------------------|
|-------------------------------------------------|


Solo:

|-------------------------------------------13-15-15b--------|
|----------------------11-------13p11-13-15-----------15-13~-|
|-------10----------------12-10------------------------------|
|-10h12----10-8h10/------------------------------------------|
|------------------------------------------------------------|
|------------------------------------------------------------|


Back to verse:

|-------------------------------------------------------------|
|-------------------------------------------------------------|
|-0--0------0--0------0--0--0--0-0-0-0-0-0-0-0-0-0--0-0--0-0--|x2
|-17/12~----17/11~----10-10-10-108-8-7-7-5-5-5-8-5--5-5--5-5--|
|-------------------------------------------------------------|
|------