Tag: take

Take My Life chords – Norton Hall Band

 Take My Life

Verse 1
 D G D Bm G A D 
Take my life and let it be, consecrated, Lord, to Thee
 Bm A G D G A 
Take my hands and let them move, at the impulse of Thy love
 Bm A D G A D 
At the im-pulse of Thy love

Verse 2
 D G D Bm G A D 
Take my feet and let them be, swift and beautiful for Thee
 Bm A G D G A 
Take my voice and let me sing, always, only, for my King
 Bm A D G A D 
Al-ways, on-ly, for my King

Verse 3
 D G D Bm G A D 
Take my silver and my gold, not a mite would I withhold,
 Bm A G D G A 
Take my moments and my days, let them flow in ceaseless praise
 Bm A D G A D 
Let them flow in ceaseless praise

Verse 4
 D G D Bm G A D 
Take my will and make it Thine, it shall be no longer mine
 Bm A G D G A 
Take my heart it is Thine own, it shall be Thy royal throne
 Bm A D G A D 
It shall be Thy royal throne

Take Good Care Of Him chords – Anita Carter

 G C G 
I suppose I ought to say congratulations

                                    D7 
For you've won the only boy I ever loved

                                    G 
But I hurt too much to face the situation

              D7 G 
Oh take good care of him take good care of him

 
                       C G 
Just to be around him was my greatest pleasure

                                     D7 
He was everything my future held in store

                                   G 
So remember when you take my only treasure

              D7 G 
To take good care of him take good care of him

 
        C G 
I must accept it he loves you more than me

            A7 D7 
So with my broken heart I'll bow out gracefully

 
 G C G 
Please don't send me any wedding invitations

                                           D7 
For I couldn't bear to see him there with you

                                    G 
If he's happy that will be my consolation

              D7 G C G 
So take good care of him take good care of him

Ill Take The Blame chords – Lonesome River Band

 G 
I slipped around dear two timing you

        C G 
Having fun now like some guys do


But now I'm sorry and now I'm through

                    D7 G 
Forgive me darling it could be you


              C G 
Well I don't blame you if you two time too

                    D7 G 
Because I'm guilty for the things I do

           C G 
I slipped around love played every game

                     D7 G 
And if you leave me I'll take the blame



I ain't got much money  just a pauper guy

                   C G 
Trying to live on love dear without your love I'll die


So please don't leave me whatever you do

                         D7 G 
Just squeeze me darling while loving you


              C G 
Well I don't blame you if you two time too

                    D7 G 
Because I'm guilty for the things I do

           C G 
I slipped around love played every game

                     D7 G 
And if you leave me I'll take the blame


                     D7 G 
And if you leave me I'll take the blame

Take My Hand For A While chords – Glen Campbell

 Take My Hand For A While
Glen cambell
Intro  D# A# D# G7 Cm G#m D# 


Verse 1

 D# A# D# G7 Cm G#m D# A# A#7 
Take my hand for a while, explain it to me  once again,     just for the sake of my broken heart


Verse 2

 D# A# D# G7 Cm G#m D# A# A#7 
Look into my eyes    and maybe I will understand,   how love I counted on was never there


Chorus 1

 A# D# Cm F A# A#7 
You see,   I thought that you might love me


Verse 3

 D# A# D# G7 Cm G#m D# 
So you caught me, it seems,   off balance with a heart so full    of love and pretty dreams that two 

             A# A#7 
should share

 D# A# D# G7 Cm G#m D# 

E------------------------------------------------------------6-|
B-----8-11-13-11-11---11-9-8-6---6-s8-8---8-s6---6---6-s8-11-8-|
G-7-8--------------------------8--------8------8---8---------8-|
D------------------------------------------------------------8-|
A------------------------------------------------------------6-|
E------------------------------------------------------------6-|


Verse 4

 A# D# Cm F Fm A#  
  And so,   I know,  but please before you go 

 D# A# D# 
   Take my hand for a while    explain it 

              G7 Cm G#m D# 
to me once again     just for the sake of my broken heart


flyinglibra51
God Bless Glen Travis Campbell

Dont Take Your Guns To Town chords – Johnny Cash V3

 G 
A young cowboy named Billy Joe

      D7 G 
Grew restless on the farm

        
A boy filled with wanderlust

     D7 G 
Who really meant no harm

    C 
He changed his clothes and shined his boots

 
And combed his dark hair down

         G 
And his mother cried as he walked out

 
       C G 
Don't Take Your Guns To Town son

 C G 
Leave your guns at home Bill

       C G 
Don't Take Your Guns To Town

 
        C G 
Don't Take Your Guns To Town son

 C G 
Leave your guns at home Bill

       C G 
Don't Take Your Guns To Town


                                        D7 G 
He laughed and kissed his mom and said your Billy Joe's a man

                                      D7 G 
I can shoot as quick and straight as anybody can

         C 
But I'd wouldn't shoot without a cause 

                      G 
I'd gun nobody down  but she cried again as he rode away

 
        C G 
Don't Take Your Guns To Town son

 C G 
Leave your guns at home Bill

       C G 
Don't Take Your Guns To Town


                                  D7 G 
He sang a song as on he rode his guns hung at his hips

                              D7 G 
He rode into a cattle town a smile upon his lips

    C 
He stopped and walked into a bar and laid his money down

         G 
But his mother's words echoed again

 
       C G 
Don't Take Your Guns To Town son

 C G 
Leave your guns at home Bill

       C G 
Don't Take Your Guns To Town


                                          D7 G 
He drank his first strong liquor then to calm his shaking hand

                                      D7 G 
And tried to tell himself at last he had become a man

   C 
A dusty cowpoke at his side began to laugh him down

        G 
And he heard again his mother's words

 
        C G 
Don't Take Your Guns To Town son

 C G 
Leave your guns at home Bill

       C G 
Don't Take Your Guns To Town


                                      D7 G 
Bill was raged and Billy Joe reached for his gun to draw

                                         D7 G 
But the stranger drew his gun and fired before he even saw

    C 
As Billy Joe fell to the floor the crowd all gathered around

     G 
And wondered at his final words

Take Me chords – Secret Lie

 Secret Lie - Take Me
From the  Pandora (2015)
Comment for any corrections and please rate


Intro:
 C Am C Am C Am C Am 
 Take me in your heart
   C Am 
 Take me in your heart

 C Am 
 When I wake up it feels always the same
 C                          
 I feel confused, I feel right
  Am F 
 I feel sad, I feel happy
            G 
 I don't know what to do
            F 
 Where to go, what to say
       G 
 How can I feel this way?

   C Am 
 Take me in your heart
     C Am 
 I need to find my way back to the start
   C Am 
 Take me in your heart
     C Am 
 I need to know that we'll never be apart

 C Am 
 Yes I'm a mess but please don't judge me
 C Am 
 I fall in love without knowing
           F G 
 Now I'm here, writing about you
           F 
 Do you know that my heart is yours?
   G 
 Do you feel the same?

 C Am C Am C Am 
 Take me in your heart
     C Am 
 I need to find my way back to the start
   C Am 
 Take me in your heart
     C Am 
 I need to find my way back to the start
   C Am 
 Take me, take me
   C Am C 
 Take me into your heart

I Take Your Money And Honey Tabs – Peer Günt

 notation legend:      

/   - slide up
\   - slide down
~   - vibrato


Intro:
E |---------------------------|----------------------------------|
B |---------------------------|----------------------------------|
G#|---------------------------|----------------------------------|
E |---------------------------|----------------------------------|
B |----/5--3--5---5-5-5--/8---|--------------6 / 11\---/3-/3-0---|
E |-0-------------------------|-7--5--3--0-----------------------|


E |---------------------------|---------------------12~------------|
B |---------------------------|---------------------12~------------|
G#|---------------------------|--------------11/12--12~------------|
E |---------------------------|------------------------------------|
B |----/5--3--5---5-5-5--/8---|--------------------------/3-/3-0---|
E |-0-------------------------|-7--5--3--0-------------------------|


E |---------------------|-----------------------|
B |---------------------|-----------------------|
G#|--/5----3--0---/12---|--/5----3--0---/12  \--|
E |--/5----3--0---/12---|--/5----3--0---/12  \--|
B |---------------------|-----------------------|
E |---------------------|-----------------------|


Verse:
E |------------------------------|------------------------------|
B |------------------------------|------------------------------|
G#|------------------------------|------------------------------|
E |---0-0-0-0--0----0-3--0----0--|------------------------------|
B |-3------------3---------3-----|-------------------3--0----0--|
E |------------------------------|-3-0-0-0-0--0-3--0------3-----|


Chorus:
E |-----------|-------------------------|
B |-3----5----|----5--7----11-11-11-11--|
G#|-3----5----|-/5----7----11-11-11-11--|
E |-3----5----|-------7----11-11-11-11--|
B |-----------|-------------------------|
E |-----------|-------------------------|


Verse2:
E |------------------------------|------------------------------|
B |------------------------------|------------------------------|
G#|------------------------------|------------------------------|
E |---0-0-0-0--0----0-3--0----0--|------------------------------|
B |-3------------3---------3-----|-------------------3--0----0--|
E |------------------------------|-3-0-0-0-0--0-3--0------3-----|

Take Me To Church Chords – Hozier

Verse 1
Em              Am  Em                       Am  G
 My lover's got humor, she's the giggle at a funeral
                         Am  Em                            Am  Em
Knows everybody's disapproval, I should've worshipped her sooner
                    Am       Em                     Am       G
If the Heavens ever did speak, she’s the last true mouthpiece
                        Am      Em                 Am      D
Every Sunday's getting more bleak, a fresh poison each week
                  C                
We were born sick, you heard them say it
Em                   Am      Em                              Am      G
 My church offers no absolutes, she tells me 'worship in the bedroom'
                        Am    Em                   Am     D
The only heaven I'll be sent to is when I'm alone with you
               C
I was born sick, but I love it. Command me to be well

        G   C G  Cm G Cm G
A-A-A-A-A-  Amen Amen Amen


Chorus
      N.C.*
(E)--3-2--2-1--|     Em                                                   B7
         Take me to church I'll worship like a dog at the shrine of your lies
                                                 G
I'll tell you my sins and you can sharpen your knife
               Am                    Em                     N.C.**  (E)--5-3--3-2--|
Offer me that deathless death, good God, let me give you my life
             Em                                                  B7
Take me to church I'll worship like a dog at the shrine of your lies
                                                G
I'll tell you my sins so you can sharpen your knife
               Am                    Em                     N.C.**
Offer me that deathless death, good God, let me give you my life

    
Verse 2
Em                      Am      Em                Am      G
 If I'm a pagan of the good times, my lover's the sunlight
                       Am    Em                 Am    D
To keep the Goddess on my side she demands a sacrifice
                   C
Drain the whole sea, get something shiny
Em                       Am        Em                       Am        G
 Something meaty for the main course, that's a fine looking high horse
                     Am   Em                         Am     D
What you got in the stable? We've a lot of starving faithful
                 C
That looks tasty, that looks plenty, this is hungry work



Chorus
N.C.*        Em                                                   B7
 Take me to church I'll worship like a dog at the shrine of your lies
                                                G
I'll tell you my sins so you can sharpen your knife
             Am                    Em                     N.C.**
Offer me my deathless death, good God, let me give you my life
             Em                                                  B7
Take me to church I'll worship like a dog at the shrine of your lies
                                                G
I'll tell you my sins so you can sharpen your knife
             Am                    Em                     N.C.**
Offer me my deathless death, good God, let me give you my life

Bridge
C          G                  B7        Em
 No masters or kings when the ritual begins
          C         G              B7         Em
There is no sweeter innocence than our gentle sin
        C           G           B7            Em
In the madness and soil of that sad earthly scene
       C        G            B7        Em   D   G/B   C
Only then I am human, only then I am clean     Oh

G    C  G  Cm G  Cm G
Oh   Amen  Amen  Amen


Chorus
N.C.*            Em                                                   B7
 Take me to church I'll worship like a dog at the shrine of your lies
                                                 G
I'll tell you my sins and you can sharpen your knife
               Am                    Em                     N.C.**
Offer me that deathless death, good God, let me give you my life
             Em                                                  B7
Take me to church I'll worship like a dog at the shrine of your lies
                                                 G
I'll tell you my sins and you can sharpen your knife
               Am                    Em                     N.C.**  Em
Offer me that deathless death, good God, let me give you my life


(N.C. = No Chords)

Adam Peyman – Take My Life chords

 G F                                       
I have  spent so    many   long years looking   searching    
 C D 
never     finding what I        sought I felt so lost

 G F 
Then you   took my  hand you  showed me   love and   laughter  sunlight
                 C D 
Shining from your soul          and I knew I was home

 G F C D 
Take my heart in your hands     make me feel help me understand
 G F C D 
Take my life    I live for you  Pain and strife we can get through

 G F                                               
My love    you have    taken   all    my sorrow    
                           C D 
and turned   it in    to happiness and I feel so blessed

 G F                                         
And the   pain that   ached in-   side my heart is   fading healing    
           C D 
replaced by love                 for an angel from above

 G F C D 
Take my heart in your hands     make me feel help me understand
 G F C D 
Take my life    I live for you  Be my wife       please say “I do”

Take Five Tabs – Dave Brubeck V6

 Take 5:

Original played in 6th fret

5/4 timing

Intro/Background: 

      Am     Am     Em 
e-|-------------------------|
B-|-----1-----1------0------|
G-|-----2-----2------0------|
D-|-----2-----2------2------|
A-|--0-----0----------------|
E-|---------------0---------|


   Am        Em            Am               Em          Am            Em   Am     Em
e-|---------|---0----------------|--------------------|-------------------|-----------|
B-|-----1-3-|4-----4-3-1---------|--------------0-----|-------------------|-----------|
G-|---2-----|------------------0-|-2--------------2-0-|-2-----------0-----|-----------|
D-|-2-------|---------------2----|--------------------|---------------2-0-|-0h2-------|
A-|---------|--------------------|--------------------|-------------------|-----------|
E-|---------|--------------------|--------------------|-------------------|-----------|


   Am        Em            Am               Em          Am            Em   Am     Em
e-|---------|---0----------------|--------------------|-------------------|-----------|
B-|-----1-3-|4-----4-3-1---------|--------------------|-------------0-----|-----------|
G-|---2-----|------------------0-|-2------------0-----|---------------2-0-|--2--------|
D-|-2-------|---------------2----|----------------2-0-|-0h2---------------|-----------|
A-|---------|--------------------|--------------------|-------------------|-----------|
E-|---------|--------------------|--------------------|-------------------|-----------|

        Am       F                G        E7
e-|-5--8--5-----------------|----7--------------------|
B-|----------6-----5--6--7--|-8-----8--5-----------5--|
G-|-------------7-----------|-------------5--7--8-----|
D-|-------------------------|-------------------------|
A-|-------------------------|-------------------------|
E-|-------------------------|-------------------------|

   F            G              E7
e-|----5---------------------|-----------------------------|
B-|-6-----6--------------4---|-5---4--5--6--8--8--7--8--9--|
G-|----------7--4--5--7------|-----------------------------|
D-|--------------------------|-----------------------------|
A-|--------------------------|-----------------------------|
E-|--------------------------|-----------------------------|

   Am        F                G        E7
e-|-5--8--5-----------------|----7--------------------|
B-|----------6-----5--6--7--|-8-----8--5--------4--5--|
G-|-------------7-----------|-------------5--7--------|
D-|-------------------------|-------------------------|
A-|-------------------------|-------------------------|
E-|-------------------------|-------------------------|

    F        G                 E7
e-|----5--------------3---1--|-0--|
B-|-6-----6--------3---------|----|
G-|----------7--4------------|----|
D-|--------------------------|----|
A-|--------------------------|----|
E-|--------------------------|----|

Ill Always Take Care Of You chords – Webb Pierce

 C F 
If you're all alone and feeling blue

      C G7 C 
I'll always take care of you

                                        F 
Till my heart stands still I will love you

      C G7 C 
I'll always take care of you

 
      F 
Your friends may turn you down

     C 
But I'll still see you thru

 D7 G7 
I'll be by your side no matter what you do

 C F 
If you're all alone and feeling blue

      C G7 C 
I'll always take care of you

  
                                 F 
If you're all alone and feeling blue

      C G7 C 
I'll always take care of you

                                        F 
Till my heart stands still I will love you

      C G7 C 
I'll always take care of you

 
      F 
Your friends may turn you down

     C 
But I'll still see you thru

 D7 G7 
I'll be by your side no matter what you do

 C F 
If you're all alone and feeling blue

      C G7 C 
I'll always take care of you

I Could Never Take The Place Of Your Man chords – Prince V2

 ---------------------------------------------------------------------------
        I Could Never Take the Place of Your Man – Prince
---------------------------------------------------------------------------
: maguri
Tuning: Standard

Prince
I Could Never Take the Place of Your Man – Single version (1987)
(Prince)

Single version (3:41) now on “The Hits 1”
Long version (6:29) with extended jam on: "Sign 'O' the Times"

---------------------------------------------------------------------------

INTRO / INTERLUDE
   C G F(add9) F F(maj7) F6 
  1 + 2 + 3 + 4 +  1 + 2 + 3 + 4 +  1 + 2 + 3 + 4 +  1 + 2 + 3 + 4 +
e|----------------|----------------|----------------|----------------)
B|6---5---3-------|3---5---3-5-1---|----------------|----------------|
G|------------5---|----------tr----|----------------|----------------|
D|----------------|----------------|----------------|--------3p2-0h2-|
A|----------------|----------------|----------------|----------------|
E|----------------|----------------|----------------|----------------|

CHORUS
   F G F(add9) F F(maj7) F6 
  1 + 2 + 3 + 4 +  1 + 2 + 3 + 4 +  1 + 2 + 3 + 4 +  1 + 2 + 3 + 4 +
e|----------------|----------------(3-------1-------|0---------------)
B|6---5---3-------|3---5---3-5-1---|----------------|--------3-------|
G|------------5---|----------tr----|----------------|----------------|
D|----------------|----------------|----------------|----------------|
A|----------------|----------------|----------------|----------------|
E|----------------|----------------|----------------|----------------|

---------------------------------------------------------------------------

CHORDS

          E-A-D-G-B-e
Fadd9     1-3-3-2-1-3
Fmaj7     1-3-3-2-1-0
F6        1-3-3-2-3-x

---------------------------------------------------------------------------


INTRO
|  C  |  G  |  F  | % |
|  C  |  G  |  F  | % |


VERSE
        C 
It was only last June
          G            |  F  | % |
When her old man ran away
     C 
She couldn't stop cryin'
            G                   |  F  | % |
'Cause she knew he was gone to stay
 C G             |  F  | % |
10:35 on a lonely Friday night
         C 
She was standing by the bar
     G                 |  F  | % |
Hmm, she was looking alright, yea


BRIDGE
   C G 
I asked her if she wanted to dance
                   F 
An' she said that all she wanted was a good man
               C G F 
An' wanted to know if I thought I was qualified, yea


CHORUS
          F G          |  Fadd9 F  |  Fmaj7 F6  |
I said, "Baby, don't waste your time
 F G      |  Fadd9 F  |  Fmaj7 F6  |
I know, what's on your mind
 F Fm 
May be qualified
       Em7 D5 
For a one night stand
             D7sus4 G G  
But I could never take the place  (break) of your man"


INTERLUDE
|  C  |  G  |  F  | % |
|  C  |  G  |  F  | % |


VERSE
    C G                         |  F  | % |
It hurt me so bad, when she told me with tears in her eyes 
                                                     (Tears in her eyes)
        C G                 |  F  | % |
He was all she ever had an' now she wanted to die
  

Take Us Home chords by Alan Doyle V2

 -Standard Tuning-

-Capo 3-

The chords are played as follows:
 G :        320003
 C :        x32033
 Em :       x22033


Verse 1:
 G 
This is my hand  Take it now it’s yours to keep

These are my eyes  Look into them and you’ll see
                         C Em 
How a rainbow needs the rain  Or it will never shine again
                   G D 
It’s the same for you and me


Verse 2:
 G 
These are my footsteps  Falling surely next to yours

This is the moment  That we’ve been waiting for
                       C Em 
It’s our story now to tell  Raise the curtain  ring the bell
                 G D 
And open up the doors


Chorus:
 Em C G Em C D 
Hey  altogether we will be  We’re forever you and me
 Em C G Em C D 
Hey  the sun will show us where to go  Love will give us heart and soul
             G 
And take us home


Verse 3:
 G 
These are my arms  Come to them when you’re cold

This is my shoulder  Rest your head and dream of home
                                     C Em 
For there’ll nights and there’ll be days  It seems a long  long ways away
                   G D 
But we’ll make it now I know


Chorus:
 Em C G Em C D 
Hey  altogether we will be  We’re forever you and me
 Em C G Em C D 
Hey  the sun will show us where to go  Love will give us heart and soul
             G 
And take us home


Verse 4:
 G 
This is my song  It’s the only one I know

This is my heart  Take it with you when you go
                           C Em 
I wanna thank you for the show  No one wants to dance alone
              G D 
I’ll see you down the road


Chorus:
 Em C G Em C D 
Hey  altogether we will be  We’re forever you and me
 Em C G Em C D 
Hey  the sun will show us where to go  Love will give us heart and soul
             G 
And take us home

Take Me Over chords – Peking Duk

 Take me over – Peking Duk feat SAFIA 

Capo 2

(Counting is tricky for this song so have added a rhythm guide: * 1 strum, ** 2 strums etc.)

[intro]
 Em  ***    C  *    G  *     Em  **   G  **      x2 

[verse]
 Em C G Em G  
I wanna go outside Stimulation amplifies (you know)
 Em C G Em G  
You need to stay behind And let me walk where the transit lights are
 Em C G Em G  
Tremors down my spine Felt it for the hundredth time (when I'm)
 Em C G Em G  
Trapped and I can not fly, And you don’t own me

[chorus]
 Em C D 
Take me over, Take me tonight
                                  Em 
Dream no more and leave it all behind
          C D 
Take me over, Take me tonight dream no more and leave it all behind

[interlude]

 Em  ***    D  *   Em  ***   C  *     Em  ***    D  *   C  ****

 Em  ***    D  *   Em  ***   C  *   

 G  **    Am  **   C  ****
               Dream no more and leave it all behind

 Em  ***    D  *   Em  ***   C  *     Em  ***    D  *   C  ****
Chase the moment, Take me over now

 Em  ***    D  *   Em  ***   C  *   G  **    Am  **   C  ****
Chase the moment, Take me over now, Take me over now.

 Em  ***   C  *   G  *    Em  **   G  **      x2 

[verse 2]
 Em C G Em G  
I wanna go outside Guess I got to feel alive
 Em C G  
Don’t want to live this fight 
     Em                         
And I let me home to where the transit lights are
 Em C G Em G  
Passions are confined Feel like this heart ain’t mine
 Em C G Em G  
Don’t need to walk the line I’ll break this grand design

[bridge]
 Em D/F# G Am Em D/F# G Am 
I feel closer I feel closure now,    And I’m gonna break out
 Em D/F# G Am Em D/F# G Am 
Chase the moment, Take me over now,      now…

[Chorus]

______________________________________
Requested by Franco at Laugh and Learn

You Cant Take It With You chords – Collin Raye

 You can't take it with you by Collin Raye


          ( A )                    ( D )         ( A )
There's a look on your face that says you're leavin'
         ( D )       ( E )              ( A )   ( Asus2 )
You've already got one foot out the door 
        ( A )             ( D )              ( A )
If it's new love or not like that you're needin'
         ( D )      ( E )       ( A )     ( A7 )
I won't leave the light on anymore 

Chorus:

( E )                     ( D )       ( A )
I still believe we could hold it together
                ( D )       ( A )        ( E )
But, there's something I want you to know
        ( A )        ( A7 )     ( D )       ( A )
When I gave you my heart, I gave it forever
( D )      ( A )         ( E )                ( A )
But, you can't take it with you when you go

( A )   ( A7 )    ( D ) ( A ) ( D )  ( A )   ( E )   ( A ) 


          ( A )                    ( D )         ( A )
While you're packing your suitcase, pack my memories
         ( D )       ( E )              ( A )        ( Asus2 )
I don't want them 'round here, when you're gone 
        ( A )                   ( D )     ( A )
And if you let that door close behind you
         ( D )        ( E )             ( A )      ( A7 )
Say good-bye to the love we could've known 

Chorus:

( E )                     ( D )       ( A )
I still believe we could hold it together
                ( D )       ( A )        ( E )
But, there's something I want you to know
        ( A )        ( A7 )     ( D )       ( A )
When I gave you my heart, I gave it forever
( D )      ( A )         ( E )                ( A )
But, you can't take it with you when you go

I Will Not Take My Love Away chords – Matt Wertz

 G C G 
I will not take my love away
         Am Em C D 
When praises cease and seasons change
             G C G 
While the whole world turns the other way
 G D G 
I will not take my love away


 G C G 
I will not leave you all alone
         Am Em C D 
When striving leads you far from home
       G C G 
And there's no yield for what you've sown
 G D G 
I will not leave you all alone

 Em D C Em D C 
Oh...               Yeah...

 G C G 
I will give you what you need
      Am Em C D 
In plenty or in poverty
 G C G 
Forever, always, look to me
 G D Em 
And I will give you what you need
 G D G 
I will not take my love away

Take My Number chords – Melissa Etheridge

 ARTIST: MELISSA ETHERIDGE
SONG:   TAKE MY NUMBER
TAB BY: DON CZARSKI
EMAIL:  GUITARZAN7@HOTMAIL.COM

                  TAKE MY NUMBER
                 MELISSA ETHERIDGE

INTRO:  A 

VERSE:
 A F#m 
Do you mind if I sit down next to you 
                           Bm 
Well I remember you from school 
      D A 
You seem to have a good heart 


VERSE:
  A F#m 
Way back then you were gonna make it big 
                   Bm 
Well it's divorce now, with a couple kids 
  D A 
That brings you back to these parts 


PRE-CHORUS:
  F#m D 
Everybody stumbles, everybody hits the ground 
 Bm F#m 
No use running scared when those changes come around 
      D E D D 
And you don't know what might be waiting for you tonight 


CHORUS:
       A 
You really shouldn't drive, you've had too much to drink
      F#m     
You shouldn't be alone where all you want to do is think 
     D A 
So take my number, or I can take you home 

  A 
We'll find a cup of coffee, we can sit all night and talk 
            F#m  
There's a diner always open just around the block 
     D A 
So take my number, or I can take you home 


BREAK:
 A E 
Oh those dreams that were going to set us free 
 F#m Bm             
What did we ever know at twenty three 
 D A 
 About what we really want 


PRE-CHORUS:
       F#m D 
Everybody's got a fire that's always going to burn 
    Bm F#m 
No way to put it out, all we ever do is learn 
 D E D 
And you don't know what might be waiting for you tonight 


CHORUS:
       A 
You really shouldn't drive, you've had too much to drink
      Bm F#m 
You shouldn't be alone where all you want to do is think 
     D A 
So take my number, or I can take you home 

  A 
We'll find a cup of coffee, we can sit all night and talk 
            F#m  
There's a diner always open just around the block 
     D A 
So take my number, or I can take you home 


REFRAIN:
           D F#m 
Take you home, take you home 
           D A 
Take you home, I can take you home 


VERSE:
 A F#m 
Do you mind if I sit down next to you 
                            D 
Well I remember you from school 
                               A 
You seem to have a real good heart 

   
CHORUS/OUTRO:  
  A                                              
You really shouldn't drive, you've had too much to drink 
       F#m 
You shouldn't be alone when all you want to do is think 
     D A 
So take my number, or I can take you home 

 A 
We can find a cup of coffee, we can sit all night and talk 
            F#m 
There's a diner always open just around the block 
  D A 
Take my number, or I can take you home 
  D A 
Take my number, or I can take you home

Take Me Out To The Dancehall chords – Pat Green

 Let your hair down 

                   C  
Wear something pretty 

           D C G  
Don't you know, you make us both look good 


Call your momma 

                        C  
Tell her you're going out tonight 

                    D  
It's going to be late 

           C G  
Yeah we might not make it back at all 



Chorus: 

                          C  
So take me out to a dancehall 

          G G/F# Em  
Tap my foot down to the rhythm 

 C D G  
Tell 'em to play them old songs that we all love 

                            Em  
And you tell me that you want me
 
         G  
And I tell you that I want you too
 
         C D G  
And I kiss your face, whenever you want me to. 


              G C  
Some people say, don't waste your time away 

        D C G  
With late night living lovers rendezvous 
 

Take my hand 

                   C  
Come on take a chance 

              D  
Close your eyes 

           C G  
Yea the rest is gonna come to you 


Repeat Chorus

(play chords of the verse for the solo)


                        Em 
I said forget about tomorrow

           G 
I don't care if it comes at all

            C D G 
And if we get a little crazy, blame it on the alcohol


Repeat Chorus


 Em  
And you tell me that you want me
 
         G  
And I tell you that I want you too
 
         C D G  
And I kiss your face, whenever you want me to.

Take Out The Gunman Tabs by Chevelle

 take out the gunman
drop c

p - pull off
h - hamer 0on
t- tremelo picking

intro/preverse

-----------------------------------------------------------------------------------------|
-----------------------------------------------------------------------------------------|
-----------------------------------------------------------------------------------------|
----------7------7--------------------------------7------7-----7-------------------------|
-7-7--7-7-7--7-7-7--7--5-5-5-5-10-10-12-12------7-7--7-7-7-7-7-7-5/12-12-12-12-12-10-12--|
-7-7--7-7----7-7----7--5-5-5-5-10-10-12-12------7----7-7---7-7---5/12-12-12-12-12-10-12--|

verse

[----------------------------------|
[----------------------------------|
[----------------------------------|
[----7------7------7------7--------|
[-7--7-7-7--7--7-7-7-7-7--7--5--0--|
[-7----7-7-----7-7---7-7-----5--0--|
[
[----------------------------------|
[----------------------------------|
[----------------------------------|
[------10------10----10------------|
[------7-------7-----7-------------|
[----------------------------------|


[---------------------------------------------|
[---------------------------------------------|
[---------------------------------------------|
[----7------7------7--------------------------|
[-7--7-7-7--7--7-7-7-7-5-5-5-5-/10-10-12------|
[-7----7-7-----7-7---7-5-5-5-5-/10-10-12------|
[
[---------------------------------------------|
[---------------------------------------------|
[---------------------------------------------|
[------10------10----10-----------------------|
[------7-------7-----7------------------------|
[---------------------------------------------|


[----------------------------------|
[----------------------------------|
[----------------------------------|
[----7------7------7------7--------|
[-7--7-7-7--7--7-7-7-7-7--7--5--0--|
[-7----7-7-----7-7---7-7-----5--0--|
[
[----------------------------------|
[----------------------------------|
[----------------------------------|
[------10------10----10------------|
[------7-------7-----7-------------|
[----------------------------------|


[--------------------------------|
[--------------------------------|
[--------------------------------|
[----7------7------7-------------|
[-7--7-7-7--7--7-7-7-7-5-5-5/12--|
[-7----7-7-----7-7---7-5-5-5/12--|
[
[
[--------------------------------|
[--------------------------------|
[--------------------------------|
[------10------10----10----------|
[------7-------7-----7-----------|
[--------------------------------|


chorus
X2
----------------------------------------------------------------------------------------|
----------------------------------------------------------------------------------------|
----------------------------------------------------------------------------------------|
----------------------------------------------------------------------------------------|
-7-7-10-7-7-10-7-7-10-5-5-5-5-10-10-12-12-7-7-10-7-7-10-7-7-10-/12-12-12-12-12-10-12-10-|
-7-7-10-7-7-10-7-7-10-5-5-5-5-10-10-12-12-7-7-10-7-7-10-7-7-10-/12-12-12-12-12-10-12-10-|

verse 2


-----------------------------------------------------------------------------------------|
-----------------------------------------------------------------------------------------|
-----------------------------------------------------------------------------------------|
---7-----7-----7-----7-----7-----7-----7-----7----12-------12-------10-------10----------|
-7-7-7-7-7-7-7-7-7-7-7-7-7-7-7-7-7-7-7-7-7-7-7-12-12-12-12-12-12-10-10-10-10-10--10------|
-7---7-7---7-7---7-7---7-7---7-7---7-7---7-7---12----12-12----12-10----10-10-----10------|


---------------------------------------------------------------|
---------------------------------------------------------------|
---------------------------------------------------------------|
---7-----7-----7-----7----12-------12--

Take Me In chords – Oaks Worship V2

 Verse 1

 Dm A# 
I am a sinner who’s been washed clean
 F C 
I am a captive who’s been set free
 Dm A# 
I’ve been forgiven by the King of Grace
 F C 
And oh the joy when I see Your face

Verse 2

 Dm A# 
You made a way where there was none
 F C 
Purchased my name with the blood of Your son
 Dm A# 
I’m welcomed in to the courts of Your throne
 F C 
And oh the joy that floods my soul

Chorus

 Dm A# 
Oh the joy that floods my soul 
                 F 
When I’m with You, Lord
                 C 
When I’m with You, Lord
 Dm A# 
Oh the joy that floods my soul 
                 F 
When I’m with You, Lord
                 C 
When I’m with You, Lord

Verse 2

Chorus

Bridge (x3)

 Dm A# 
By Your blood I’m redeemed
                                    F  
By Your mercy I am free
                                      C 
You’ve forgiven every sin
                                                Dm 
And in Your love You take me in
                                            A# 
To Your heart, to Your throne
                                                      F 
That I may know You and be known
                                    C 
So I come in confidence
                                                Dm 
And in Your love You take me in

Turn (x2)
               A# F C 
Take me in, take me in, oh-oh
                                        Dm 
In Your love You take me in

Bridge 

Turn (x2)

Instrumental

 D  -  A#  -  F  -  C