Tag: team

Keine Angst chords – Farin Urlaub Racing Team

 Keine Angst -- Farin Urlaub Racing Team (Faszination Weltraum)

Tuning: 1/2 step down (Zombiestimmung -- wie Farin das halt so macht ;)



    Intro
 C#m A C#m A C#m A 
    Du läufst wochenlang durch heißen Wüstensand.
 C#m A 
    Du verbietest Zweifel an deinem Verstand.
 E E G# G# C#m A A/B 
    Du vermischst die Zukunft mit der Gegenwart.
 C#m A 
    Findest Gegenden, die nie ein Mensch betrat.
 E G# A F#m 
    Du sagst, dass du vom Leben mehr verlangst.
 E G# A B 
    Du lachst:
                   C#m 
    Du hast keine Angst.


 C#m A A/B 
    Manchmal denkst du dir dann dunkle Welten aus.
 C#m A 
    Bist den andern immer drei Schritte voraus.
 E G# A F#m 
    Du steigst so hoch, dass du nur fallen kannst.
 E G# A B 
    Du zeigst:
                   C#m 
    Du hast keine Angst.


    Solo
 C#m A C#m A C#m A A/B 
    Es interessiert dich nicht, ob jemand dich versteht.
 C#m A 
    Weil es morgen wieder in die Wüste geht.
 E G# A F#m 
    Du weißt, dass du niemandem was verdankst.
 E G# A B 
    Und du schreist:
                   C#m 
    Du hast keine Angst.


    Outro
 C#m

Die Perfekte Diktatur chords – Farin Urlaub Racing Team V2

 Die perfekte Diktatur
====================
M/T: Farin Urlaub

Tab von Brei

Vormerk: Zombiestimmung (Halbton tiefer)/ half-step down

Anm. Akkorde: / Chords

    Am Em FM7 F9 C G Dm E5 D5 C5 G5 A5 F5 Esus4 E    F5/7   D9 D4 
1:-0-|—0-|-0-|-3-|-0-|-3-|-1-|---|---|---|---|---|---|-7--|-7-|--0--|-0-|-3-|
2:-1-|—0-|-1-|-1-|-1-|-0-|-3-|---|---|---|---|---|---|-10-|-9-|--0--|-3-|-3-|
3:-2-|-0-|-2-|-2-|-2-|-0-|-2-|---|-7-|-5-|---|---|---|-9--|-9-|--2--|-2-|-2-|
4:-2-|-2-|-3-|-3-|-0-|-0-|-0-|-2-|-7-|-5-|-5-|-7-|-3-|-9--|-9-|--3--|-0-|---|
5:-0-|-2-|-3-|-3-|-3-|-2-|---|-2-|-5-|-3-|-5-|-7-|-3-|-7--|-7-|--3--|---|---|
6:---|-0-|-1-|-1-|---|-3-|---|-0-|---|---|-3-|-5-|-1-|----|---|--1--|---|---|


Intro:  (Stahlakustik)
  Am Em FM7  F5/7  FM7 F9 Am Em FM7  F5/7  FM7 F9 

Strophe: (Stahlakustik)

  Am Em FM7    F5/7  FM7 F9 
 Ich geh’ nicht mehr ans Telefon, es klingelt jeden Tag um Vier.
  Am Em FM7   F5/7   FM7 F9 
 Ich fahr’ nicht mit der Straßenbahn, ich lauf’ den ganzen Weg zu dir.
  C G FM7 Dm D4 D9               
 Das Telefon wird abgehört und in der Bahn sitzen Spione. 
  Am Em FM7  F5/7  FM7 F9 
 Sie tragen stets die selbe Uhr und wissen alle wo ich wohne.
  Am Em FM7  F5/7  FM7 F9 
 Wir treffen uns in einem Park, um diese Zeit ist niemand hier.
  Am Em FM7  F5/7  FM7 F9 
 Wir können reden, ungestört, und es gibt keine Mikrofone.


Refrain:  (Verzerrte E-Gitarre)
                      D5 A5 C5 G5  
 Sie kommen meistens Nachts um die Leute zu holen, hinterher steht wieder eine Wohnung leer.
                     D5 A5 C5 G5 
 Die Zeitungen sind voll mit Durchhalte-Parolen, aber Zeitung liest sowieso keiner mehr.
               D5 A5 C5 G5 
 Überall sind Kameras angebracht, alles wird Rund um die Uhr überwacht.
                   D5 E5 A5 G5 A5        Riff1
 Die Grenzen sind geschlossen seit Jahren schon, dir bleibt nur noch die innere Emigration. 

         Riff1:
         1:|-----------------|
         2:|----5------------|
         3:|----7b9--7--5----|
         4:|--------------7~-|
         5:|-----------------|
         6:|-----------------|


Strophe:  (Stahlakustik)

  Am Em FM7          F5/7    FM7 F9 
 Ich kenn’ dich seit wir Kinder sind, ich weiß ich kann dir auch vertrau’n.
  Am Em FM7      F5/7  FM7 F9 
 Wir planen schon seit einem Jahr zusammen von hier abzuhau’n.
  C G FM7 Dm D4 D9 
 Du hast uns Dynamit besorgt, jetzt brauchen wir noch ein paar Waffen.
  Am Em FM7        F5/7  FM7 F9 
 Du sagst, du hälst es nicht mehr aus, und du hoffst sehr, dass wir es schaffen.
  Am Em FM7       F5/7  FM7 F9 
 Zum Abschied darf ich dir noch einmal tief in deine Augen schau’n.
  Am Em FM7        F5/7

Die Perfekte Diktatur chords – Farin Urlaub Racing Team V1

 Die perfekte Diktatur

©Nopper23

Intro

 Am Em Fmaj7 Fadd9   (2x)


 Am Em 
Ich geh nicht mehr ans Telefon,
                                               Fmaj7 Fadd9 
es klingelt jeden Tag um vier.
 Am Em 
Ich fahr nicht mit der Strassenbahn,
              Fmaj7 Fadd9 
ich lauf den ganzen Weg zu dir.
 C G 
Das Telefon wird abgehört
                                        F Dm Dsus 
und in der Bahn sitzen Spione,
 Am Em 
sie tragen stets die selbe Uhr
                                           Fmaj7 Fadd9 
und wissen alle wo ich wohne.
 Am Em 
Wir treffen uns in einem Park,
                                                Fmaj7 Fadd9 
um diese zeit ist niemand hier.
 Am Em 
Wir können reden ungestört
              Fmaj7 Fadd9 
und es gibt keine Mikrophone.
       
 Dm Am 
Sie kommen meistens nachts um die Leute zu holen,
       C G 
hinterher steht wieder eine Wohnung leer.
                Dm Am    
Die Zeitungen sind voll mit Durchalteparolen,
                        C G 
aber Zeitung liest sowieso keiner mehr.
                      Dm Am 
Überall sind Kameras angebracht,
                   C G 
alles wird rund um die Uhr überwacht.
                                Dm E 
Die Grenzen sind geschlossen seit Jahren schon,
             Am Gm Am 
dir bleibt nur noch die innere Emigration


 Am Em 
Ich kenn dich seit wir Kinder sind,
                                                      Fmaj7 Fadd9 
ich weiß ich kann dir auch vertrau‘n.

 Am Em 
Wir planen schon seit einem Jahr,
              Fmaj7 Fadd9 
zusammen von hier abzuhau‘n.
 C G 
Du hast uns Dynamit besorgt,
                                                       F Dm Dsus 
jetzt brauchen wir noch ein paar Waffen.

 Am Em 
Du sagst du hältst es nicht mehr aus
             Fmaj7 Fadd9 
und du hoffst sehr dass wir es schaffen.
 Am Em 
Zum Abschied darf ich dir noch einmal
                                       Fmaj7 Fadd9 
tief in deine Augen schaun.
 Am Em 
Ich denk den ganzen Weg nach Haus an dich
                                                    Fmaj7 Fadd9 
ich werd' wohl nicht viel schlafen.
 Dm Am 
Sie kommen meistens nachts um die Leute zu holen,
                                C G 
und hinterher steht wieder eine Wohnung leer.
                                 Dm Am 
Die Zeitungen sind voll mit Durchhalteparolen,
                       C G 
aber Zeitung liest sowieso keiner mehr.
                        Dm Am 
Überall sind Kameras angebracht,
                  C G 
alles wird rund um die Uhr überwacht.
                              Dm Em 
Trotzdem ist es heute nach wieder passiert
                                      Am G Am 
In der Innnestadt sind Bomben explodiert

und das Radio sagt
 Em 
Es besteht keine Gefahr für die Öffentlichkeit

 Em 
Es besteht keine Gefahr für die Öffentlichkeit
 F 
Es bes

Niemals chords – Farin Urlaub Racing Team V2

 : dodlhuat


 Em 
Ich wünsch mir, dass ich dich vergessen kann,
 C 
Ich würd dich gerne einfach ignorieren.
 G 
Ich bin mir sicher, irgendwann,
 B7 
Wird das auch einfach über Nacht passieren.
 Em 
Bis dahin wird einige Zeit vergehen,
 C 
Bis dahin muss ich noch geduldig warten.
 G 
Ich werd versuchen dich nicht anzusehen,
 B7 
Weil meine Blicke mich verraten.

              C 
Doch mir ist klar,
                       Em 
Dass da niemals etwas sein wird,
                       C 
Weil da niemals etwas war.

 Em 
Vielleicht liegts daran,
Dass ich zu oft allein war,
         C 
Als ich klein war.
Oder dass mein Vater gemein war.
 G 
Nein, dass soll keine Verteidigung sein,
 B7 
Ich wüsste nur selber gern,
Woran es eigentlich liegt,
              Em 
Dass ich auf Wolken geh,
Wenn ich dich seh.
               C 
Mein Kopf ist JWD,
Und es tut mir weh,
      G 
Dass du nicht weißt,
               B7 
Wie es in mir aussieht.

                   Em 
Ich lege dir mein Herz zu Füßen,
 C 
Was soll ich noch damit,
 G 
Bitte tritt es nicht kaputt,
     B7 
Es litt bereits genug.

         C 
Mir ist klar,
                            Em 
Dass da niemals etwas sein wird,
                       C 
Weil da niemals etwas war.

 C B7 Em 
Du sagst du willst nichts von mir,
 C 
Ich träume trotzdem von dir,
 G 
Was ich nicht habe,
 B7 
Kann ich auch nicht verlieren.
 Em 
Du sagst es hat keinen Sinn,
 C 
Wenn wir zwei etwas beginnen,
 G 
Zu spät, 
 B7 
denn ich steck mittendrin.

 Am 
Die Zeit vergeht langsam,
 G 
Es vergeht kein Tag,
 B7 
An dem ich nicht an dich denke,
Mit jedem Herzschlag.
 Am 
Es vergeht kein Tag,
Es vergeht keine Stunde,
 G 
Ich denk jetzt an dich,
Jetzt, in dieser Sekunde.
 B7 
Und immer und ständig,
Bei Tag und bei Nacht,
Was ist bloß mit mir los,
Was hast du mit mir gemacht?

 Em C G Bm C 
Mir ist klar,
 Em 
Dass da niemals etwas sein wird,
 C 
Weil da niemals etwas war. 

Drzim Ti Miesto chords – Team

 Am F G C Am F 
Ked budes citit, ze zivot s tebou zameta Ked ta budu chciet do klubu 
 H F Am F G C 
poslednych Vies, kde ma mozes najst, budem prave tam
 Am F H F 
Kde som cakal tolko prazdnych dni
 
Kupim Ti pivo, alebo teple gastany
A sumrak sa rozleti na krdel vran
Poviem Ti: pozri vzducholod hori nad nami
Prid tam k opustenym lavickam

®          
          Am F G C 
Drzim Ti miesto, teraz uz vies to, nemusis sa bat
          Am F G Am 
Drzim Ti miesto, nie je to gesto, ako tolko krat

Rozsvietim s tebou sedemnast smutnych zapaliek
Ked sa nemozes vylizat z ran a krivd
Kupim ti v malej trafike lacno davny smiech
Nemusis nic vysvetlovat, prid !

®: 

Das Schoene Maedchen chords – Farin Urlaub Racing Team

 Artist: Farin Urlaub
Song: Das schöne Mädchen
 Endlich Urlaub
Year: 2001
Tabber: beranger80@hotmail.com


Chords
 Em7 : 022030
 Am7 : x02213


Intro:

     C Em 
e--------------------|------------------|
b----------1--1--1---|------------------|
g-----(0)--0--0--0---|-0----------------|
d----------2--2--2---|-2----------------|
a---3------3--3--3---|-2----------------|
e--------------------|-0----------------|x3


     C Em Em7 
e--------------------|------------------|
b----------1--1--1---|----------(3)-----|
g------0---0--0--0---|-0----------------|
d----------2--2--2---|-2----------------|
a---3------3--3--3---|-2----------------|
e--------------------|-0----------------|
                                4th time


Verse:

 C Em Em7 
Manchmal kommt sie hier vorbei,
 C Em Em7 
aber stehen bleib sie nie.
 C Em Em7 
Manchmal nehme ich mir frei
 C Em 
und dann wart ich hier auf sie.
      G 
Auf sie.



Chorus:

 Am D 
Das schöne Mädchen.
 Am D 
Das schöne Mädchen.



Post Chorus:

     C Em 
e--------------------|------------------|
b----------1--1--1---|----------(3)-----|
g------0---0--0--0---|-0----------------|
d----------2--2--2---|-2----------------|
a---3------3--3--3---|-2----------------|
e--------------------|-0----------------|x2



Verse: 

 C Em 
Ab und zu ist das Wetter schön
 C Em Em7 
und dann lächelt sie sogar.
 C Em Em7 
Ich hab sie schon so oft gesehn,
 C Em 
doch sie nimmt mich gar nicht wahr.
        G 
Nicht wahr.



Chorus: 

 Am7 D 
Das schöne Mädchen.
 Am7 D 
Das schöne Mädchen.
 Am7 D 
Das schöne Mädchen.
 Am7 D 
Das schöne Mädchen.



Solo: 

e---------------------|------------------|
b-------8--10--12-----|-------8--10--12--|
g--9---------------9--|--9---------------|
d---------------------|------------------|
a---------------------|------------------|
e---------------------|------------------|
                   x3            4th time



Chorus:

 Am7 D 
Das schöne Mädchen.
 Am7 D 
Das schöne Mädchen.




Verse (play the chord only once):

 C Em 
Wenn der erste Sonnenschein
 C Em 
auf ihre Haare fällt,
 C Em 
dann gäb ich alles in der Welt,
 C Em 
um ein Sonnenstrahl zu sein.
n. C .
Einmal.




Verse: 

 C Em Em7 
Ich werde weiter auf sie warten,
 C Em Em7 
vielleicht sprech ich sie ja mal an.
 C Em Em7 
Ich würd ihr gern so viel erzählen, erzählen.
 C Em 
und sie wird zuhören,irgendwann
       G 
irgendwann.



Chorus: 

 Am7 D 
Das schöne Mädchen.
 Am7 D 
Das schöne Mädchen.




Coda:

 Am7 D   to the end on  ad lib lyrics.


End on:
 Am  on 4:29.

Pokemon – Team Aquamagma Grunt Battle Theme Tabs by Misc Computer Games

 -------------------------------------------------------------------------------
                             Pokemon RSE - Team Aqua/Magma Grunt Battle Theme
-------------------------------------------------------------------------------
: Christopher McLaren
 swampert948@hotmail.co.uk

Tuning: Standard.


Opening Lick:

e|--6-6h7h9p7p6-x4----|
B|--------------------|
G|--------------------|
D|--------------------|
A|--------------------|
E|--------------------|

e|--------------------------------------------5--------------------|
B|-----3-4-6--6--6-6--6--6-7-6--6--6-6--6--6---6--6--6-6--6--6-7---|
G|-----------------------------------------------------------------|
D|-----------------------------------------------------------------|
A|-----------------------------------------------------------------|
E|-----------------------------------------------------------------|

e|------------------5---------------------------------------------------------|
B|--6--6--6-6--6--6----6--4--3---4-3-4-6-4-3-4-7----4-------------------------|
G|-----------------------------3----------------------------------------------|
D|----------------------------------------------------------------------------|
A|----------------------------------------------------------------------------|
E|----------------------------------------------------------------------------|

e|--------------------------------11------------------------------------------------|
B|--6--4--3---4-3-4-6-4-3-4-7-------------------------------------------------------|
G|----------3----------------------------7--7--7--8--8--8--10--10--10--8--8--8------|
D|----------------------------------------------------------------------------------|
A|----------------------------------------------------------------------------------|
E|----------------------------------------------------------------------------------|

e|-----------------------------------------------------------------------------|
B|----------------------------------------------9--7----9-7--------------------|
G|-7-7-7-8-8-8-10-10-8-7---7-10----7---7-8-10--------------8-10----------------|
D|------------------------------------8----------------------------------------|
A|-----------------------------------------------------------------------------|
E|-----------------------------------------------------------------------------|

e|-----------------------------------------------------------------------------------|
B|----------7------------------------------------------------------------------------|
G|--7---7-8---8----------------------------8--------------------8---13---------------|
D|----8----------7-8-10-11---/11---11-9-11--12-11-9-11---11-9-11--11---12-11---------|
A|---------------5-6-8--9------------------------------------------------------------|
E|-----------------------------------------------------------------------------------|

e|------------------------------------------------------|
B|------------------------------------------------------|
G|-----------8------------------------------------------|
D|---11-9-11--12-11-9-11--12--13--14--13--14--15--16----|
A|------------------------------------------------------|
E|------------------------------------------------------|

e|-----------------------------------------------------------------------------|
B|-----------------------------------------------------------------------------|
G|-----------------------------------------------------------------------------|
D|-----------------------------------------------------------------------------|
A|--5h6p5h6h8/9p8p6--5h6p5h6h8/9\8/9--5h6p5h6h8/9p8p6--6p5h6p5h8/9p8p6---------|
E|-----------------------------------------------------------------------------|

e|------------------------------------------------------------------------------|
B|------------------------------------------------------------------------------|
G|--------------

Climax chords – Yg Win Team B

 D 
Eoje nae kkum-e nawatji
 A 
Deo neulkeojin moseubhagoseon
 Em 
Nan mot alabwatji
 G 
Museoweosseo ige hyeonsil-i dwil geotman gataseo
 D 
Ddeo nagi jeon-e pumsok-eseo yaksokhaesseo janha
 A 
Jib han chae jieonohgo naega gidarindaet janha
 Em 
Wae neulkeumyeon neuleotji deo areumdabge neulkeoseo
 G 
Saram mot alaboge hae jitgucheun uri eomma
 D 
Michidorok bogosipeodo mot bwatji naye sarang
 A 
Eodi gaseo dangdanghage malhae geudaega naye jarang
 Em 
Geudae miso damgin sajin nae seulpeum gareuneun kalnal
 G 
Kkumi dwaebeorin geudae eonje mich si-e olrae malhae
Majungna galke jeil ganjeolhan sarama

CHORUS:
 D 
Namgyeojyeotdeon nae baljagukdeuli
 A 
Oneul bam naege dagaogil
 Em 
Dalryeo-oni sungan kkeut-e
 G 
No limit gon touch the sky
 D 
Kkumkweo watdeon nareul wihae
 A 
Oneul bameneun throw it away
 Em 
Dalryeo-oni sungan kkeut-e
 G 
No limit gon touch the sky
 D 
No limit gon touch the sky
 A 
Touch the sky
 Em 
Touch the sky
 G 
Touch the sky

HANBIN:
Cheongchuneul bachyeoseo maenbalro dalryeowatdeon samnyeon uh
Gajukgwa chingudeulgwaye musimhan annyeong uh
Naeili neul bulanhaetdeon harureul salmyeonseo
Nal mideura malhaetji kkok seonggong hagetdamyeo uh
Honjaga anin daseot myeongye insaengeul
Eokke-e da jireojigo chajadanyeotji gihwireul
Beotil subaekk-e eobseosseo manheun budamgwa silddaereul
Ijeneun bicheul bogopaseo geoleotji miraereul uh
Sini naege oleotji neo huhwi anagetnyago
Mangseolim eobsi daedabhae wae huhwihagetnyago
I mudae dwi-e namneun geon ama seonggong animyeon nag-o
Mudeungeol geoleotgo daeumeun eobseo
Namdareul subaekk-e eobneun nae gak-o

JUNHOE:
              D A 
jigeumi naye majimak iraedo nan
 Em G 
noraehae huhwi eobge nan noraehae norae
         D     
yeah we flyin oneul bam
 A Em G 
flyin oneul bam flyin oneul bam flyin

CHORUS:
 D 
Namgyeojyeotdeon nae baljagukdeuli
 A 
Oneul bam naege dagaogil
 Em 
Dalryeo-oni sungan kkeut-e
 G 
No limit gon touch the sky
 D 
Kkumkweo watdeon nareul wihae
 A 
Oneul bameneun throw it away
 Em 
Dalryeo-oni sungan kkeut-e
 G 
No limit gon touch the sky
 D 
No limit gon touch the sky
 A 
Touch the sky
 Em 
Touch the sky
 G 
Touch the sky

JUNHOE:
                           D 
Seuchyeo gatdeon sigan sok-e
         A Em 
Gieokdeuli noraega dwi-eo
       G 
I sungan-en da
             D 
Touch the sky

Team chords – Lorde V5

 Similar to another tab I just thought the ending needed to be fixed.


*Capo 6th


 

Wait 'til you're announced


We've not yet lost all our graces


The hounds will stay in chains


Look upon your greatness


That you’ll send


The call I'll send



 C 
   Call all the ladies out
   They’re in their finally

 Am 
   A hundreds jewels on throats

 G 
   A hundred jewels between teeth

 C 
   Now bring my boys in

   Their skin in craters like the moon

 Am G      
 The moon we love like a brother, while he glows through the room



     C 
   Dancin' around the lies we tell


Dancin' around big eyes as well


 Am G 
 Even the comatose   they don’t dance and tell



[Chorus]


 F Am 
 We live in cities you'll never see on screen

 G Em Am 
 Not very pretty, but we sure know how to run free

 F Am G 
 Living in ruins   of the palace within my dreams
                                       F 
 And you know, we're on each other's team

            
              Am G                     
I'm kind of over getting told to throw my hands up in the air, so there

 C 
So all the cups got broke

 Am 
Shards beneath our feet 
But it wasn’t my fault

                      
And everyone’s competing for a love they won't receive


'Cause what this palace wants is release




[Chorus]


 F Am 
 We live in cities you'll never see on screen

 G Em Am 
 Not very pretty, but we sure know how to run free

 F Am G 
 Living in ruins   of the palace within my dreams

                                       F 
 And you know, we're on each other's team



  F Am G 
  I’m kind of over getting told to throw my hands up in the air

So there

  F Am G 
  I’m kinda older than I was when I rebelled without a care

So there



[Chorus]


 F Am 
 We live in cities you'll never see on screen

 G Em Am 
 Not very pretty, but we sure know how to run free

 F Am G 
 Living in ruins   of the palace within my dreams
                                       F 
 And you know, we're on each other's team

 F Am G 
     And you know, we're on each other's team
                         
                          F Am 
  We're on each other's team
                         
                          G 
  We're on each other's team
                         
                                      F 
And you know, and you know, and you know

B Team chords – Marianas Trench V2

 Second attempt at posting this (first I posted it as a tab haha) Hoping most if 
not all sounds about right:) Feedback helps!

Standard Tuning

No Capo
_____________________________________________________________________________
(Intro)

 Am C Am C G Am G Am (2x)

(Verse) (same pattern as intro)

 Am C Am 
You could want this
           C G 
See if it fits for a bit
         Am G 
And if you don't like it
      Am Am C Am 
Then you can go like you have been
     C G Am 
And I'll never tell, never tell how I fell for it 
 G Am 
I never fell before

(Prechorus)(Both guitars are the same chords, except rhythm doesn't play the G)

    G Am B C 
3, 2, 1, you get right up and I'm the one done
               Am G Am                 
You never say yes, not quite no
          B C 
Say just enough to make me not go
                  Am        
You choose your words,
      G Am B C 
Careful voice, in the end I'm not the first choice
                     Am G Am 
You say you want someone just like me
 B 
So then why am I your plan, 
Why am I your plan, 
Why am I your plan B?

(Chorus)
 C D G Am G Em 
You know, you know you love the way I linger and, 
 F Em F 
You keep me wrapped right round your finger, 
      C D G Am G Em 
But you say, you say, just wait a little longer, and
     F Em F 
And in time, I could be the right one
 G 
Please, I'm the B team 

*(Verse 2 is the Same As Verse 1)*

(Prechorus)

    G Am B C 
3, 2, 1, you get right up and I'm the one done
               Am G Am                 
You never say yes, not quite no
          B C 
Say just enough to make me not go
                  Am        
You choose your words,
      G Am B C 
Careful voice, in the end I'm not the first choice
                     Am G Am 
You say you want someone just like me
 B 
So then why am I your plan, 
Why am I your plan, 
Why am I your plan B?

(Chorus)

(Bridge)

(DON'T PLAY AT ALL)
You like to make me beg, yes you like it
You like to make me beg, you do
You like to make me beg, yes you like it
You like to make me be you do
(You just like it)
You like to make me beg, yes you like it
You like to make me beg, you do
(You just like it)
You like to make me beg, yes you like it
You like to make me beg, you do
(YOU JUST LIKE IT)
You like to make me beg, yes you like it
You like to make me beg, you do
(YOU JUST LIKE OH)
You like to make me beg, yes you like it
You like to make me beg, you do

SAY JUST ENOUGH TO MAKE ME NOT GO

OH

(Last Chorus)
 C D G Am G Em 
You know, you know you love the way I linger and, 
 F Em F 
You keep me wrapped right round your finger, 
      C D G Am G Em 
But you say, you say, just wait a little longer, 

Favourite Ghost Tabs by Team Me V2

 -------------------------------------------------------------------------------
                             Favourite Ghost - Team Me
-------------------------------------------------------------------------------
: Hallvard97
 ths@live.no

Tuning: E-A-C-G-B-D
Capo: 4th fret

Amazing song on their debut album, To The Treetops. 
I have watched a couple of live videos, and it looks like Marius plays it on the lower strings,
only a few frets up. Anyway, my way of playing it sounds pretty similar. Make sure to get the
tuning right!

INTRO
D|-----------0------------0------------0----------------------------------------|
B|--4------------4------------4------------4------------------------------------|
G|--------0------------0------------0-------------------------------------------|
C|-----0------------0------------0----------------------------------------------|
A|--3------------3------------3------------3------------------------------------|
E|------------------------------------------------------------------------------|

INTRO/VERSE
D|-----------0------------------------0---------------0----------------0--------|
B|--4--------------4----6----8-------------8---------------11-------------------|
G|--------0----0-------------------0----0----------0----0-----------0-----0-----|
C|-----0------------------------0--------------0-----------------0--------------|
A|--3--------------3----5----6-------------6---------------10-------------------|
E|------------------------------------------------------------------------------|

D|-----------0--------------0--------------0---------------0---------------0----|
B|--10-------------6--------------8---------------8--------------8--------------|
G|--------0----0---------0-----0--------0-----0---------0----0----------0----0--|
C|-----0--------------0--------------0---------------0---------------0----------|
A|--8--------------5--------------6---------------6--------------6--------------|
E|------------------------------------------------------------------------------|

D|-----------------------0----------------0-----------------0-------------------|
B|--8----6----4-----------------4----------------4------------------------------|
G|--------------------0-----0----------0-----0----------0------0----------------|
C|----------------0-----------------0----------------0--------------------------|
A|--6----5----3-----------------3----------------3------------------------------|
E|------------------------------------------------------------------------------|

D|-------------------------0---------------0------------------0-----------------|
B|--11----10----8----------------8-----------------8-----------------8----------|
G|----------------------0-----0---------0-----0------------0-----0--------------|
C|------------------0----------------0-----------------0------------------------|
A|--10----8-----6----------------6-----------------6-----------------6----------|
E|------------------------------------------------------------------------------|

D|------------0-------------------0--------------------0------------------0-----|
B|--1-----------------3-------------------3-------------------3-----------------|
G|---------0-----0------------0------0-------------0------0-----------0------0--|
C|-----0------------------0--------------------0------------------0-------------|
A|--------------------2-------------------2-------------------2-----------------|
E|--4---------------------------------------------------------------------------|

D|-------------0------------------0-----------------0------------------0--------|
B|--1------------------1------------------1------------------1------------------|
G|----------0-----0------------4-----4-----------4-----4-----------4-----4------|
C|------0------------------0------------------0-----------------0---------------|
A|------------------------------------------------------------------------