Tag: tell

Tell Me Tabs by Sharon Jones And The Dap-Kings

 -------------------------------------------------------------------------------
                 TELL ME - SHARON JONES & THE DAP KINGS
-------------------------------------------------------------------------------
: Ignacio Mendez-Nunez
 ignacio.mendeznunez

Tuning: Standard
 Vamp on Abm...............then
e|--4--4--4--4---------------9--9--9--666-----222---2---------6--------------| Hard to hear this last part
B|--4--4--4--4--------------11-11-11--777-----444-----4-------6--------------| so I'm open to improvements!
G|--4--4--4--4--------------11-11-11--888-----444-------4-----6--------------|
D|---------------------------------------------------------------------------|
A|---------------------------------------------------------------------------|
E|---------------------------------------------------------------------------|

Verse and Chorus
    Db           Abm
e|----9---9------4--4--------------------------------------------------------|
B|----9---9------4--4--------------------------------------------------------|
G|---10--10------4--4--------------------------------------------------------|
D|---------------------------------------------------------------------------|
A|---------------------------------------------------------------------------|
E|---------------------------------------------------------------------------|
That's all there is to this song!


************************************

| /   slide up
| \   slide down
| h   hammer-on
| p   pull-off
| ~   vibrato
| +   harmonic
| x   Mute note
| b   Bend

************************************

Tell Me On A Sunday chords – Andrew Lloyd Webber

 VERSE 1
=======

 G C Dm7 G 
Don't write a letter, when you want to leave,

 Em Am F Am 
Don't call me at 3am, from a friend's apartment,

     Dm7 Em Bb                       
I'd like to choose, how I hear the news.

         C G F Bb F 
Take me to a park, that's covered with trees.

         C G C 
Tell me on a Sunday please.


VERSE 2
=======

 G C Dm7 G       
Let me down easy, no big song and dance,

 Em Am F Am     
No long faces, no long looks, no deep conversation,

   Dm7 Em Bb  
I know the way, we should spend that day.

         C G F Bb F   
Take me to a zoo that's got chimpanzees.

         C G C        
Tell me on a Sunday please.


CHORUS
======

 Bb F Fm C 
Don't want to know who's to blame, it won't help knowing.

       F Bb Am G 
Don't want to fight day and night, bad enough you're going.

 G C Dm7 G   
Don't leave in silence with no words at all.

 Em Am F Am 
Don't get drunk and slam the door, that's no way to end this,

   Dm7 Em Bb      
I know how I, want you to say goodbye.

        C G F Bb F 
Find a circus ring with a flying trapeze.

         C G C 
Tell me on a Sunday please.


CHORUS
======

 Bb F Fm C 
Don't want to know who's to blame, it won't help knowing.

       F Bb Am G 
Don't want to fight day and night, bad enough you're going.

 G C Dm7 G   
Don't leave in silence with no words at all.

 Em Am F Am 
Don't get drunk and slam the door, that's no way to end this,

   Dm7 Em Bb      
I know how I, want you to say goodbye.

         C G F Bb F 
Take me to a park that's covered with trees.

         C G C           
Tell me on a Sunday please.



=====================================================================
=  Words & Music by - Don Black and Andrew Lloyd Webber - Sep 1979  =

=                Roger Pearson - Dec 2014                  =
=====================================================================

Did I Tell You chords – Jerry Williams

 Intro: |  F F F F  |  Bb Bb Bb Bb  |  C C C C  |  F Bb F C  |
        (Oooh... Oh-oh-oh...)
       |  F F F F  |  Bb Bb Bb Bb  |  C C C C  |  F Bb F C  |
       (Did I tell you? Oooh... Oh-oh-oh...)

         F Bb  
Yes, I know that the way we live is breaking your heart,
         C                         |  F F Bb C  |
and it don't help that I'm always away.
         F Bb  
And I know that deep down inside we just can't hide,
        F C              |  F Bb 
this feeling that love's slipping away.


 C         - |               F 
  Did I tell you that I love you?
 F Bb 
  Did I tell you that I need you so?
 Bb C                         |  F F 
  Did I tell you that the sun shines, where ever you go?
 Bb C  |                 F 
  Did I tell you that the stars shine,
 F Bb 
  from the border 'cross the Rio Grande,
           F C           |  F Bb F C  |
cast in heaven and set just for you?

         F Bb  
I can tell by the look in your eyes you're worried 'bout me.
          C                              |  F F Bb C  |
You're wond'ring if our love is all in vain.
             F Bb 
But don't think I don't care about the way that you feel.
           F C              |  F Bb  
There's something I think you should know.


 C         - |               F 
  Did I tell you that I love you?
 F Bb 
  Did I tell you that I need you so?
 Bb C                         |  F F 
  Did I tell you that the sun shines, where ever you go?
 Bb C  |                 F 
  Did I tell you that the stars shine,
 F Bb 
  from the border 'cross the Rio Grande,
           F C           |  F Bb F C  |
cast in heaven and set just for you?


|  Am Am Bb Bb  |  C C C C  |  Am Am Bb Bb  |  C C G G  |  Bb Bb C C  |               F 
  Did I tell you that I love you?
 F Bb 
  Did I tell you that I need you so?
 Bb C                         |  F F 
  Did I tell you that the sun shines, where ever you go?
 Bb C  |                 F 
  Did I tell you that the stars shine,
 F Bb 
  from the border 'cross the Rio Grande,
           F C           |  F F  
cast in heaven and set just for you?


 Bb C  |               F 
  Did I tell you that I love you?
 F Bb 
  Did I tell you that I need you so?
 Bb</spa

Cant Tell Me Nothing chords – Kanye West V2

 ----------------------------------------------
       Kayne West - Can't Tell Me Nothing
----------------------------------------------
: Jesper Wrang
Email: JesperWrang96

 ever made, pretty simple song to play. Works well for a solo performance with a acoustic guitar.
Would love some feedback! <3 Enjoy :D


Capo 3rd Fret - Standard  E tuning

Chords:
       Am   x02210
       C    x32010
       Dm   xx0231
       C/B  x20010
       Fmaj7  x3321x
 
Chord structre of the hole song:
       Am  -  C  -  Dm  -  Dm  -  C  -  C/B     x3
       Fmaj  -  C  -  Dm  -  Dm  -  C  -  C/B 

The last 3 chords, Dm C C/B are played quickly after each other


[Intro, nothing played here]:
La, la, la la (Yeah)
Wait 'til I get my money right

[Verse 1]
 Am C Dm    
   I had a dream I could buy my way to heaven
                 Dm C C/B        
When I awoke, I spent that on a necklace
 Am C Dm 
   I told God I'd be back in a second
             Dm C C/B 
Man it's so hard not to act reckless
 Fmaj7 C Dm     
      To whom much is given, much is tested
              Dm C C/B 
Get arrested guess until he get the message
 Am C Dm 
   I feel the pressure, under more scrutiny
                Dm C C/B 
And what I do, act more stupidly
 Am C Dm 
    Bought more jewelry, more Louis V
          Dm C C/B 
My Momma couldn't get through to me
 Am C Dm 
   The drama, people suing me
                   Dm C C/B 
I'm on TV talking like it's just you and me
 Fmaj7 C                      
I'm just saying how I feel man
 Dm Dm C C/B 
I ain't one of the Cosby's, I ain't go to Hillman
 Am C Dm 
   I guess the money should've changed him
                     Dm C C/B 
I guess I should've forgot where I came from


[Hook]
 Am C          
La, la, la la
 Dm Dm C C/B 
Wait 'til I get my money right
 Am C 
La, la, la la
 Dm Dm C C/B 
Then you can't tell me nothing, right?
 Fmaj7 C 
Excuse me, was you saying something?
 Dm Dm C C/B 
   Uh uh, you can't tell me nothing
 Am C 
   You can't tell me nothing
 Dm Dm C C/B 
   Uh uh, you can't tell me nothing


[Verse 2]
 Am C              
   Let up the suicide doors
 Dm Dm C C/B 
This is my life homie, you decide yours
 Am C Dm   
   I know that Jesus died for us
                        Dm C C/B 
But I couldn't tell ya who decide wars
      Fmaj7 C Dm 
So I parallel double parked that motherfucker sideways
                   Dm C C/B 
Old folks talking bout back in my day
 Am C                     
   But homie this is my day 
 Dm Dm C C/B 
Class st

Kiss And Not Tell chords – La Roux

 Pretty simple chords, these are only backing guitar chords but you can sing along with them. 

Capo on 5th Fret. 

Intro:  C  x4

 C 
Ten thousand stories sent
 C 
Two lovers disguise
 C 
You've seen the future now
 C 
A love that is blind

 F 
Makes you want to kiss and not tell
 C 
Makes you want to kiss and not tell

 C 
You've dialled that number now
 C 
So where's the surprise
 C 
Temptations calling you
 C 
A secret reply

 F 
Makes you want to kiss and not tell
 C 
Makes you want to kiss and not tell

 Am G F 
All along I've had feelings I can't help
Makes me want to kiss and not tell

 C  x2


 C 
You say in evidence
 C 
They won't take you alive
 C 
But when the sun goes down
 C 
You cover your lies

 F 
Makes you want to kiss and not tell
 C 
Makes you want to kiss and not tell

 C 
You like the elegance
 C 
But it's weighing you down
 C 
And sometimes you just need a night on the town, oooh

 F 
Makes you want to kiss and not tell
 C 
Makes you want to kiss and not tell

 Am G F 
All along I've had feelings I can't help 
Makes me want to kiss and not...
 Am G F 
And all I want is to come right out of my shell
Makes me want to kiss and not tell

 C x2

 C ,  C ,  C ,  C ,  F ,  C  x2

 Am G F 
All along I've had feelings I can't help 
Makes me want to kiss and not
 Am G F 
And all I want is to come right out of my shell
Makes you want to kiss and not tell

 Am G F  repeat until end...
All along I... Feelings I can't...
Feelings I can't help
All I want is... to come right out my... to come right out my shell

All along I've had feelings I can't help 
Makes me want to kiss and not...
And all I want is to come right out of my shell
Makes me want to kiss and not tell

All along I've had feelings I can't help 
Makes me want to kiss and not...
And all I want is to come right out of my shell
Makes you want to kiss and not tell

Dont Tell Our Friends About Me chords – Blake Mills V2

 Standard Tuning

Capo: 3


 G G/F# Cadd9 D G G/F# Cadd9 D   
The older I am, the wiser I'm not
 G G/F# Cadd9 D   
and I felt ashamed of how angry I got
 G G/F# Cadd9 
when I was not getting my message across
 D Cadd9 
I know you can't stand me when that's how I talk
 D Cadd9 
when I summon a duel or when I brandish a thought
 G G/F# Cadd9 
I was wrong to turn honesty against you
 D Cadd9 
and sure, some of them could use a good talk


 G G/F# Cadd9 D   
but babe, don't tell all our friends about me
 G G/F# Cadd9 D   
Please, baby, don't tell our friends about me


 G G/F# Cadd9 D 
I'll sleep on the couch if you want me to
 G G/F# Cadd9 D 
or I can be a good dog and just sit with you
 G G/F# Cadd9 
Do whatever it is that you ask me to do
 D Cadd9 
'til you forgive me and I forgive you
 D Cadd9 
I know you got the beating but I caught a feeling
 G G/F# Cadd9 
Frankly, I don't know what else I can confess to you
 D Cadd9 
Lovers may quarrel and spar sometimes,


 G G/F# Cadd9 D   
but babe, don't tell all our friends about me
 G G/F# Cadd9 D   
Please, baby, don't tell our friends about me

Break: 

 Gsus G   Emsus             Em 
I know I fucked up, I know I fucked up,
 Cadd9 D 
I know I fucked up, I know I fucked up,
 Gsus G   Emsus             Em 
I know I fucked up, I know I fucked up,
 Cadd9 D 
I know I fucked up, I know I fucked up,
 G G/F# Cadd9 D  
but please, baby, don't tell all our friends about me


 G G/F# Cadd9 D 
You said you just needed some time to adjust
 G G/F# Cadd9 D 
It's been 48 hours and 3 weeks and 2 months
 G G/F# Cadd9 
and the hummingbirds hum, the workerbees buzz
 D Cadd9 
You put too much confidence in the people you trust
 D Cadd9 
Enemies or friends, they'll all tend to judge 
 G G/F# Cadd9 
and I'll write songs that'll help me deal with issues,
 D Cadd9 
and sometimes people will hear too much 


 G G/F# Cadd9 D 
But babe, they don't tell all our friends about us
 Cadd9 D 
No, mostly they'll just start to blush
 G G/F# Cadd9 D 
Please, baby, don't tell our friends about me
 G G/F# Cadd9 D 
Please, baby, don't tell our friends about me

Break:

 Gsus G   Emsus             Em 
I know I fucked up, I know I fucked up,
 Cadd9 D 
I know I fucked up, I know I fucked up,
 Gsus G   Emsus             Em 
I know I fucked up, I know I fucked up,
 Cadd9 D 
I know I fucked up, I know I fucked up,
 G G/F# Cadd9 D  
but please, baby, don't tell all o

Tell Me Tabs by Joey Albert

 Chords Arranged by: Charlie Edsel Valera
Title: Tell Me
Joey Albert

Intro:
e---0-----3-----1--3-|
b-1-----3-----1----3-|
g--------------------|
d--------------------|
a-3-----2-----1----2-|
e------------------3-|

verse:                      repeat 2x
e-0---------0---------0—0h1--------------0-----------------0----|
b-----1----------1----------0h1--3--3------0--1--3-1-0--------3-|
g---0---0------0---0-------------------0----------------2-------|     
d---------------------------------------------2-----------------|
a---------------------2----------2--2-------------------1-----2-|
e-3---------2---------------------------------------------------| 

chorus:
e-3------3------------7-8-7------------7-7-8-7----------8/10--8-0-1-------|
b-3---3--3—0h1-1-3-0---------8/10--8------------8/10--8--------------0--3-|
g---0---------------------------------------------------------------------|
d-----------------------------------------------------------------3-------|
a--------0------------8------------7---8--------------7-----------------2-|
e-0-----------------------------------------------------------------------|

e-3/5-3---3-3-----------7-8-7---------7-7-8-7---------7-7h8--0-|
b-3/5-3-3---3—0h1-1-3-0------------8----------8/10-8-----------|
g-----------------------------8/10-----------------------------|
d----------------------------------7---------------------------|
a-----------0-----------8-------------8------------7-----------|
e-----0--------------------------------------------------------|

ending:
e-1--3--5--7--8---8--8---8--8---8----8---8---8-|
b-------------8-8----8-8----8-8------8---8---8-|
g----------------------------------------------|
d-3--3--3--5--8------7------6------5---5---5---|
a----------------------------------------------|
e--------------------------------------------8-|

Please Tell Me Why chords – Dave Clark Five

 Please Tell Me Why:Dave Clark Five.
#18 CASH BOX and # 28 on BB Hot 100 on
EPIC Records in 1966.

INTRO:  C D C .. G C G 

#1.
 C G C F C G 
I don't know why she won't love me, Lord, please tell 
    C G 
me why.
 C G C F C G C 
Maybe it's that she don't love me..could it be she's shy.

#2.
 Dm7 G D 
If she's shy then I'll understand, I'll make the first 
          G 
move and hold her hand.
 C G C F C G C 
But if I'm wrong then I'll be mad..la-da-da-da-da.

BRIDGE:
 Bb Eb F C G 
I've been trying, oh, so hard, but she don't seem to 
 C 
notice.
 Bb Eb F C G C 
I sit next to her in class, but she can't see my motive.


INTERLUDE:  D C G .. C G C 

#3.
 C G C F C G C    
Do you think she has a boy..if she has, then I'm done.
 G C G C F C G C 
Cause if he catches me with her, I think I'll have to run.
 Dm7 G D 
If she's passive, she'll understand..I'll value my love,
                G 
but not in her hands.

OUTRO:
 C G C F C G C 
But if I'm wrong then I'll be mad..la-da-da-da-da.
 C G C C G C 
La-da-da-da-da..la-da-da-da-da..(Fade.)


A sixties smash from Kraziekhat.

Tell Me chords – Dick And Dee Dee

 Tell Me:Dick and DeeDee.
#22 on BB Hot 100 on LIBERTY Records
in 1962.

INTRO:  D Em G 

#1.
 G Em Bm 
Tell me where I came to lose your love..
      C D G Em C 
tell me what did I do wrong.
        D G Em C 
Was it only make believe..why it lasted, 
        D 
oh, so long?

#2.
 G Em Bm 
Could it be that you found someone new?
 C D G Em C 
Tell me, am I just a memor..y?
 D G Em C      
Tell me, please, I have to know..it means 
 D G 
everything to me.

BRIDGE:
   C Bm G 
I thought our love would never end..that 
 D G 
shows how blind love can be.
 C Bm G A 
Won't you please say you care..and bring your 
                   D Eb 
love back here to me?

#3.
 Ab Fm Cm 
Tell me where I came to lose your love..
 Db Eb Ab Fm Db 
tell me what did I do wrong?
        Eb Ab Fm Db Eb 
Was it only make believe..why it lasted, 
        Ab 
oh, so long.

OUTRO:
 Db Eb Ab Fm 
Why it lasted, oh, so long..
 Db Eb Ab 
Why it lasted, oh, so long..(Fade.)


A sixties smash from Kraziekhat.

Tell Her You Love Her chords – Echosmith

 G G G G G 
Tell her a story
 G D 
Tell her the honest truth
 G 
You treat her better
 G D 
Make sure to see it through


 G                        
Don't be just everything she wants
 G D 
Be everything she needs
 G  
When she says she loves you
 G D 
Tell her you love her too


 Bm G D Asus4 
Oh oh oh oh oh oh [x2]


 G 
Give her a reason
 G G 
A reason to love all you do

 G G 
She'll tell you secrets
 G D 
You'll tell her secrets too
 G 
She'll tell you all her hopes and dreams
 G D 
You'll tell them too
 G 
When she says she loves you
 G D 
Tell her you love her too

 Bm G 
But don't you run away run away
                 D A 
When you get tired
           Bm G 
Cus this will slip away slip away
                 D A 
And start a fire
 Bm G 
That can never be put out
 D A 
Oh hurry time is running out
              Bm G 
But don't you run away run away
 Bm G D 
Before you say
   A Bm G D A 
You love her (oh oh oh [x2])

 G 
When she says she needs you
 G D 
Tell her you need her too
 G 
You tell her clearly
 G D 
Speak what your heart wants you to
 G 
Tell her she's lovely
 G D 
Always tell her the truth
 G  
When she says she loves you
 G D 
Tell her you love her too
 Bm G 
But don't you run away run away
                     D A 
When you get tired
 Bm G 
Cus this will slip away slip away
                 D A 
 And start a fire
 Bm G 
That can never be put out
   D A 
Oh hurry time is running out
 Bm G 
But don't you run away run away
 D          
Before you say
 A Bm G D A 
You love her (oh oh oh [x2])

Tell The World chords – Praise And Worship

 Verse 1: 
 F#m  
Don't wanna stand here and shout Your praise 
 F#m  
And walk away and forget Your name 
 F#m  
I stand for You if that's all I do 
 F#m  
'Cause there is none that compares to You 
PreChorus: 
 F#m  
'Cause all I want in this life time is You 
     F#m Bm7 D  
And all I want in this whole world is You, You, You 
 A E  
Tell the world that Jesus lives 
 F#m  
Tell the world that 
 D  
Tell the world that 
 A E  
Tell the world that He died for them 
 F#m D  
Tell the world that He lives again 
Verse 2: 
 F#m  
No longer I, but Christ in me 
 F#m  
'Cause it's the truth that set me free 
 F#m  
How could this world be a better place 
 F#m  
By Thy mercy, by Thy grace 
Bridge: 
      A Bm9 F#m D  
Come on, come on, we'll tell the world about You 
      A Bm9 F#m D  
Come on, come on, we'll tell the world about You 
(repeat) 
Ending: 
      A E F#m  
Come on, come on, we'll tell the world about You 
                     D  
Tell the world that, tell the world that 
(repeat three times) 
       D  
About You

Tell The Doctor Tabs by Wax Mannequin

 
-----------------------------------------------------------------------------
                             TELL THE DOCTOR - Wax Mannequin
-----------------------------------------------------------------------------
: Corbe
vhabyeryemyennahyah_corbe@hotmail.com

Tuning:Half-Step Down

Intro of Organ

G#5     E5
C#5           G#5                E5        E5   F#5
you’ve got to tell the doctor to believe me

he’ll make it real he’ll make it real he’ll make it real 
no no, no no, no no, no no, no no
you’ve got to tell the doctor to believe me
he’ll give it form, he’ll give it form, he’ll give it form
no no, no no, no no, no no, no no

                                    x3
e|---------|--------|--------|--------|----------------|
B|o--------|--------|9-9-9-9-|-------o|----------------|
G|-6-6-6-6-|6-6-6-6-|9-9-9-9-|--------|----------------|
D|-7-7-7-7-|7-7-7-7-|9-9-9-9-|8-8-898-|7-7-7-7-9-9-9-9-|
A|o7-7-7-7-|7-7-7-7-|7-7-7-7-|9-9-999o|7-7-7-7-9-9-9-9-|
E|-5-5-5-5-|5-5-5-5-|--------|6-6-666-|5-5-5-5-7-7-7-7-|
           
he gets good medicine from the gears
good medicine from the gears
good medicine from the gears
no no, no no, no no

you’ve got to tell the pusher to believe me
he’ll make it eas’, he’ll make it eas’, he’ll make it easy
no no, no no, no no, no no, no no
you’ve got to tell street dealer to amaze me
he’s got a gun, he’s got a gun, he’s got a gun
bang bang, bang bang, gun gun, gun gun, gun gun, gun

he brings bad medicine from the back
bad medicine from the back
bad medicine from the back the back of the class
bad medicine from the back
no no, no no, no no

dah,     alright you’ve got to quench it do it right
no no,   doctor you’ve got to fuel it to put it out
dah,     alright you’ve got to quench it do it right
ooooooo
  A                  A                E                Bb+
e|------------------|----------------|----------------|----------------|
B|------------------|----------------|----------------|----------------|
G|------------------|----------------|----------------|----------------|
D|------------------|--------7-------|6---------------|----------------|
A|------------------|----------------|--9-7-----------|----------------|
E|------------------|----------------|----------------|6-------7---9~--|
  A                  A                E                Bb+
e|------------------|----------------|----------------|----------------|
B|------------------|----------------|----------------|----------------|
G|------------------|----------------|----------------|----------------|
D|------------------|--------7-------|6-------11------|----------------|
A|------------------|----------------|--9-7-----119-7-|9p7-7-----------|
E|(9)---------------|----------------|----------------|--------9-7-5~--|

  A                  A                E                Bb+
e|------------------|----------------|----------------|----------------|
B|------------------|----------------|----------------|----------------|
G|------------------|----------------|----------------|----------------|
D|------------------|--------7-------|6---------------|----------------|
A|------------------|----------------|--9-7-----------|----------------|
E|------------------|----------------|----------------|6-------7---9~--|
                            meow     meow moew moew    moew   moew moew 

  A5                  B5                
e|----------------|----------------|
B|----------------|----------------|
G|----------------|----------------|
D|----------------|9~--------------|
A|--------7---9---|----------------|
E|----------------|----------------|
          oo  oo    oooooo


you’ve got to tell the preacher to forgive me,   fuck
don’t want to boing, don’t want to boing, don’t want to boing
boing boing, boing boing, boing boing, boing boing boing boing
you’ve got to tell the preacher to forgive me,   I say
he’ll make me bleed he’ll make me 

Jordan Holloway – Tell Me Youre Real Tabs

 Tell Me You're Real
Jordan Holloway
Daylight Savings


|------------------------------------------3---------------3-----------------------------|
|----------1---------------1-----------------3---------------3-------------1-------------|
|------0-----0---0-----0-----0---0-----0---------0-----0---------0-----2-----2---2-----2-|
|----2---2-----2-----2---2-----2---------0-----0---------0-----0-----2---2-----2-----2---|
|--3---------------3-----------------2---------------2-------------0---------------0-----|
|----------------------------------3---------------3-------------------------------------|


|--------------------1---------------1-------|
|----1-----------1-----1---1-----1-----1---1-|
|------2---2---2---2-----2-----2---2-----2---|
|--2-----2---3---------------3---------------|
|--------------------------------------------|
|--------------------------------------------|

This is just repeated throughout the entire song, have fun!

Tell Me chords – Aubrey Peeples

 "Tell Me" is track 9 from the Original ABC TV Show "Nashville" Season 2, Volume 1 Album.

Tuning: Standard EADGBe

No Capo

Chords used: 
 E    - 023100
 A    - x01230
 Dbm  - x13421 Fret : 4

Intro: E--

[Verse 1:]
 E 
I got my reasons for leaving,

I got my reasons to stay
                 A 
But baby if you want

you could make me stop
                       E 
Yeah you know what to say

I just want you to tell me,

strum the strings of my heart
                        A 
'cause winds are kinda low
                                             E 
and we alway wind up getting tangled in the dark.

[Chorus:]
 E A E A E 
Tell me I'm the only one, the only you're thinking of
                  Dbm A 
Tell me I'm your queen, that I'm in your every dream
                  A E A E 
Tell me that you want me bad, 'cause I'm the best you've ever had
                      Dbm A 
Then love me for the night and the rest of your whole life
      E 
Tell me

[Verse 2:]
 E 
The words will flow if you feel it,

I'll hang on to every word
                        A 
But don't you hold him back,

no point in doing that
                     E 
So baby please come on

[Chorus:]
 E A E A E 
Tell me I'm the only one, the only you're thinking of
                  Dbm A 
Tell me I'm your queen, that I'm in your every dream
                  A E A E 
Tell me that you want me bad, 'cause I'm the best you've ever had
                      Dbm A 
Then love me for the night and the rest of your whole life
      E 
Tell me

x2

 E 
Baby tell me
 E 
Why don't you tell me?
 E 
Why don't you tell me?

http://en.wikipedia.org/wiki/Aubrey_Peeples

Go Tell It On The Mountain chords – David Crowder Band

 Intro:  D Bm  (repeat)

Verse 1:
       D Bm 
While shepherds were out watching
       G D  
Their silent flocks by night
   D Bm 
Behold throughout the heavens
       G D 
There shone a holy light


Chorus:
 D 
Go tell it on the mountain
 A G D 
Over the hills and everywhere
 D 
Go tell it on the mountain
           A Bm 
The Jesus Christ is born
                D 
It's Christmas Day
                Bm 
It's Christmas Day


Verse 2:
     D Bm 
The shepherds feared and trembled
       G D 
While lo, above the earth
      D Bm 
Rang out the angel chorus
      G D 
That hailed our Saviour's birth


Verse 3:
      D Bm 
Down in a lowly manger
     G D 
Our humble Christ was born
     D Bm 
And God sent us salvation
      G D 
That blessed Christmas morn'


Outro:
                D 
It's Christmas Day
                Bm 
It's Christmas Day  (repeat)

Tell The Boys chords – Jesse Sykes The Sweet Hereafter

 Bm A Bm G D A Bm G 
Tell my boy
 D A 
I've been thinking about him tonight
 Bm G D 
A december's day, gone astray

 Bm G 
Well, he took the fall
              D                                         
'Cause some things in life
                A 
Are still worth a good brawl
 Bm G D 
Two hearts lost in the fray

 Em G 
Tell the boys
 Em G 
Tell the boys
 Em G A G 
Tell the boys


 Bm G 
Things we don't know
 D A 
Words lovers say when they're letting go
 Bm G D 
Dropped through the arms of a thief
 Bm G 
The planes y in low
 D A 
Taking me down past those tracks in the snow
 Bm G D 
A december's day, gone astray

 Em G 
Tell the boys
 Em G 
Tell the boys
 Em G A G 
Tell the boys



Read more: Jesse Sykes - Tell The Boys Lyrics | MetroLyrics 

Tell chords – The Radio Dept

 The Radio Dept - Tell

 Amaj7  - x02224 or x02124
other chords as usual


 Amaj7 G#m 
Betrayal is always sad

 B A  
Needless to say what you could have had

 Amaj7 G#m  
Of course you have it still

 B A  
But based on a lie that you always will 

 Amaj7 G#m 
Repeat till it clings true

 B A  
I've been lied to by the likes of you

 Amaj7 G#m  
From that point of view 

 B A 
I get the privilege to enlighten you 


 B A 
On what I'm doing to help her 

 B A 
She needs some shelter 

 B A B A 
And if you've felt her loyalty what can you do? 


Will you keep this up, 
As long as you can if I don't make it stop? 
I don't have a clue 
Of what you are about to do 
Would you fool me too? 
I've been lied to by the likes of you 
From that point of view 
I get the privilege to enlighten you 

On what I'm doing to help her 
She needs some shelter 
And if you've felt her loyalty what can you do? 

I'm trying to help her 
She needs some shelter 
And if you've felt her loyalty what can you do?

Time Will Tell chords – Blood Orange

 Song: Time Will Tell
Artist: Blood Orange
 Cupid Deluxe
 Crocky
Lyrics Source - http://rock.rapgenius.com/Blood-orange-time-will-tell-lyrics
(I added some of the missing bits at the end of the song)


Standard Tuning - Eadgbe

Chords
Not 100% on these, the track isn't amazingly clear.
These are broad strokes, suggestions and improvements would be very welcome.

Enjoy :)

 B ,   D ,   F#/Gb ,   Bsus2 ?

e|---|---|-2-|-2-|
b|-4-|-6-|-2-|-2-|
g|-4-|-6-|-3-|-4-|
d|-4-|-6-|-4-|-4-|
a|-2-|-4-|-4-|-2-|
E|---|---|-2-|-2-|

Intro:  B ,   D ,   F# ,   Bsus2   x2

 B D 
  Time will tell if you can figure this and work it out
 F# Bsus2 
  No one's waiting for you anyway so don't be stressed now
 B D 
  Even if it's something that you've had your eye on
 F# Bsus2 
  It is what it is

 B D 
  Time will tell if you can figure this and work it out
 F# Bsus2 
  No one's waiting for you anyway so don't be stressed now
 B D 
  Even if it's something that you've had your eye on
 F# Bsus2 
  It is what it is

 B D F# Bsus2 
Finishing 8 or 9 tell me its the perfect time
 B D F# Bsus2 
Told you I'll be waiting hiding from the rainfall

 B 
Come into my bedroom
 D 
Come into my bedroom
 F Bsus2 
Come into my bedroom


 B 
Come into my bedroom
 D 
Come into my bedroom
 F Bsus2 
Come into my bedroom

Motif x4 - On 4th time, go straight into B after last note.

e|------6-7--6--------6-7--6-4--|
b|--7-9-----------7-9-----------|
g|------------------------------|
d|------------------------------|
a|------------------------------|
E|------------------------------|

 B D 
  Time will tell if you can figure this and work it out
 F# Bsus2 
  No one's waiting for you anyway so don't be stressed now
 B D 
  Even if it's something that you've had your eye on
 F# Bsus2 
  It is what it is

 B D 
 Even if it's all you know just keep your heart in
 F# Bsus2         
 Anyway to keep it up just never let yourself down
 B D 
  Even if it's something that you've had your eye on
 F# Bsus2 
  It is what it is

Alt Motif x4 then with chords
e|------6-7--6-4--------6-7--6--|
b|--7-9-------------7-9---------|
g|------------------------------|
d|------------------------------|
a|------------------------------|
E|------------------------------|
      
 B D F# Bsus2 
Finishing 8 or 9 tell me its the perfect time
 B D F# Bsus2 
Told you I'll be waiting hiding from the rainfall

                        B 
I've wasted moments in bowery light
 D 
Come into my bedroom
 F Bsus2 
Come into my bedroom

              B 
I've kept it open
 D 
Come into my bedroom
 F Bsus2 
Come into my bedroom

 B D F Bsus2  until end

Just Tell Me Why Tabs by The Treatment

 The Treatment
   -    Just Tell Me Why

 Michael Lewis
   -    Twitter: @MyCool_Lewis

YouTube cover of this song:


Notes:
   -    Rhythms for Gtr.1 and 2 will not always be aligned 
   - Tune down one half step


   Main Riff
eb|--------------------3------3-----------------|
Bb|---------------------------------------------|
Gb|-7-----5/7--5/7------------------------------|
Db|-7-----5/7--5/7--5-(5)--5-(5)----------------|
Ab|-5---0-3/5--3/5--3-(3)--2-(2)--2-3p2---------|
Eb|-------------------------------------3-------|
  |     .
eb|--------------------3------3-----------------|
Bb|---------------------------------------------|
Gb|-7-----5-7--5-7--5------4------4-5p4---------|
Db|----/7------------------------------5--------|
Ab|---------------------------------------------|
Eb|---------------------------------------------|

   Pre-Chorus (Do you even know me...)
eb|------------------------|--------------------|
Bb|------------------------|--------------------|
Gb|---------5---7----------|--------------------|
Db|-3---5---5---7---3---5--|-7------------------|
Ab|-3---5---3---5---3---5--|-7------------------|
Eb|-1---3-----------1---3--|-5------------------|
  
eb|------------------------|---------------------|
Bb|------------------------|---------------------|
Gb|-5h7-7-7--7-5h7-7-7-etc.|-2-2-2-2-7-7-6-6-6-6-|
Db|------------------------|-------------7-7-7-7-|
Ab|------------------------|---------------------|
Eb|------------------------|---------------------|

   Chorus
eb|---------------------------------------------|
Bb|---------------------------------------------|
Gb|-7--------------------3---5------------------|
Db|-7----3---3---3---5---3---5------------------|
Ab|-5----3---3---3---5---1---3------------------|
Eb|----0-1-0-1-0-1---3--------------------------|
  |    . . . . . 
eb|---------------------------------------------|
Bb|---------------------------------------------|
Gb|-7-7-7-7-7-5-5-5-5-5-4-4-4-4-3-3-5-5---------|
Db|---------------------------------------------|
Ab|---------------------------------------------|
Eb|---------------------------------------------|

   Chorus end
eb|---------------------------------------------|
Bb|---------------------------------------------|
Gb|-3---5---------------------------------------|
Db|-3---5---5-----------------------------------|
Ab|-1---3---5-----------------------------------|
Eb|---------3-----------------------------------|
  |
eb|---------------------------------------------|
Bb|---------------------------------------------|
Gb|-3---3---5-5---------------------------------|
Db|--------------5------------------------------|
Ab|---------------------------------------------|
Eb|---------------------------------------------|

   Fill Solo
eb|------------------------------------------------------|
Bb|-13fb-13-13fb--13-13fb--------------------------------|
Gb|-----------------------12fb-12rp10-12--10-------------|
Db|------------------------------------------12----10h12-|
Ab|---------------------------------------------12-------|
Eb|------------------------------------------------------|
                                              .  .  .  
   Bridge (I wanna, I need to hear...)
eb|---------------------------------------------|
Bb|---------------------------------------------|
Gb|-3-3-3-3-6-6-6-6-7-7-9-9-10-10-2-2-----------|
Db|-3-3-3-3-7-7-7-7-7-7-9-9-10-10-2-2-----------|
Ab|-1-1-1-1-4-4-4-4-5-5-7-7--8--8-0-0-----------|
Eb|---------------------------------------------|
  |
eb|---------------------------------------------|
Bb|---------------------------------------------|
Gb|---------------------------------------------|
Db|---------------------------------------------|
Ab|-1-1-1-1-4-4-4-4-5-5-7-7--8--8-0-0-----------|
Eb|---------------------------------------------|

   Bridge end
eb|------------------

Only Time Will Tell chords – The Shirelles

 Intro:  C Am F G C Am
Will you love me tomorrow
          C Am
or is it just for a day?
 F G C G
Only time will tell.

         C Am
My mama said boys lie
           C Am
and I believe what my mama said
 F G C G
Only time will tell.


          C Am
I wonder will I, will I be just
   C Am
a thing out of the past?
 F G C G
Only time will tell.

         C Am
Soldier boy how I hold
      C Am
this love will last?
     F G C G
But only time will tell.


 F C
This is dedicated to the one I love so true
       F C
and I swear by stars above baby it's you
   F C Am
tonight's the night i found a love to love my whole life through
 F G C G
only time will tell.
 F G C G
only time will tell.
 F G C G
only time will tell.
 F
only...