Tag: thank

Please Thank You chords – Wildcat Wildcat

 Please & Thank You // Wildcat! Wildcat!



Capo 1


Intro:  G A G A Bm A D  [2x]


 G A G 
Take these hands among the higher
                   A Bm 
Take these hands higher
                             A D 
Take these hands among the higher

 G A G 
Take these hands among the higher
                   A Bm 
Take these hands higher
                             A D 
Take these hands among the higher

 G A G              
Taking what you need, and now it is the time for me to leave
       A Bm A D 
It's only in your mind, solely in your mind
 G A G 
Fade the in between, and taking all your decent memories
 A Bm A D 
Solely of your mind, we were only killing time

 G A G 
Slow down, did you want to hear it again?
        A Bm A D 
It's something that you do, but you never knew
            G A G 
Can you slow down, I can hardly hear what you're saying
      A Bm A D 
The fuck you never knew, when you climbed into bed

 G A Bm  [3x]  

 D G A G 
Take in what you need, and now it isn't time for me to leave
       A Bm A D 
It's only in your mind, solely in your mind
 G A G 
Fade the in between, and take in all your decent memories
  A Bm A D 
Solely of your mind, we were only killing time
               G A Bm 
Only killing time

 G A Bm D 

Outro:

 G A G A Bm A D A

Thank You For Loving Me Tabs by Bon Jovi V5

 Intro Solo:
   D                      G  B                       A (fig2)
e:|-------------------------|----------------------------|
B:|--10b12b10---------------|--10b12b10------------------|
G:|-----------11--9h11p9--7-|------------11--9h11p9--7/9-|
D:|-------------------------|----------------------------|
A:|-------------------------|----------------------------|
E:|-------------------------|----------------------------|


Verse:

    G                               D
Its hard for me to say the things I wanna say sometimes
       G                                  D
Theres no-one here but you and me and the broken old street light
C#       B        G                  A (fig1)
Lock the door and leave the world outside
D               G               A (fig2)
All I've got to give to you are these five words and I

Chorus:

      D             G
Thank you for lovin me
             A (fig 1) D
For being my eyes when I couldn't see
    C#        B    A                E        A
For parting my lips when I couldn't breathe
      D       G     A
Thank you for lovin me
      D       G     A (fig 2)
Thank you for lovin me


Fig 1:
e:|---------------|
B:|--2-2/3-3/5p3--|
G:|---------------|
D:|---------------|
A:|---------------|
E:|---------------|

Fig 2:
       A
e:|-----------|
B:|----3---2--|
G:|----2---2--|
D:|----2---2--|
A:|-----------|
E:|-----------|


Verse:

  G                          D
I never knew I had a dream until that dream was you
G                              D
When I look into your eyes the sky's a different blue
C#       B      G         A (fig1)
Cross my heart, I wear no disguise
D                 G                 A (fig2)
If I tried, you'd make believe that you beleive my lies


Chorus:

      D             G
Thank you for lovin me
             A (fig 1) D
For being my eyes when I couldn't see
    C#        B    A                E        A
For parting my lips when I couldn't breathe
      D       G     A
Thank you for lovin me
      D       G     A (fig 2)
Thank you for lovin me


Bridge:

G
  You pick me up when I fall down
A
  You ring the bell before they count me out
E                            F#       G
  If I was drownin you would part the sea
C                       D      E   A
  And risk your life to rescue me  


Solo:
   D                       G          A         D
e:|---------------------------------|-------------------------------||
B:|---------------------------------|--14-15-17--20-19h20p19-17-19--||
G:|---9b11-9b11-9b11b9-7h9----------|-------------------------------||
D:|------------------------7h9--9-7-|-------------------------------||
A:|---------------------------------|-------------------------------||
E:|---------------------------------|-------------------------------||


C#       B        G                  A (fig1)
Lock the door and leave the world outside
D               G                     C              A
All I've got to give to you are these five words and I


End Chorus:

      D             G
Thank you for lovin me
             A (fig 1) D
For being my eyes when I couldn't see
    C#        B    A                E        A
For parting my lips when I couldn't breathe
      D             G
Thank you for lovin me
                A (fig 1) D
When I couldn't fly  oh   you gave me wings
    C#        B    A                E        A
For parting my lips when I couldn't breathe
      D       G     A
Thank you for lovin me
      D       G     A
Thank you for lovin me
      D       G     A (fig 2)
Thank you for lovin me


End Solo:

   D                      G  B                       A (fig2)
e:|-------------------------|----------------------------||
B:|--10b12b10---------------|--10b12b10------------------||
G:|-----------11--9h11p9--7-|------------11--9h11p9--7/9-||  x2
D:|-------------------------|----------------------------||
A:|--

Thank God For Kids chords – Eddy Raven

 D G 
If it weren’t for kids have you ever thought

      D A 
There wouldn’t be any Santa Clause

     G A 
Look what the stork just brought

                       D 
Thank God for kids

- - -

   D G 
We’d all live in a quiet house

       D A 
Without Big Bird or a Mickey Mouse

   G A 
Kool aid on the couch

                        D 
Thank God for kids

-  - -

 G 
Thank God for kids

              A D 
There’s magic for a while

        G A D 
A special kind of sunshine in a smile

      G A Bb 
Do you ever stop to think, or wonder why

       G Em A 
The nearest thing to heaven is a child.

- - -

(SPOKEN) And come Christmas morning

    D G 
Daddy, how does this thing fly,

      D A 
A hundred other where’s and why’s

     G A 
I really don’t know, but I’ll try


                        D 
Thank God for kids

- - -

   D G 
When I look down in those trusting eyes

          D A 
That look at me and I realize

             G A 
There’s love that I can’t buy

                        D  
Thank God for kids

- - -


 G 
Thank God for kids

               A D 
There’s magic for a while

          G A D 
A special kind of sunshine in a smile

       G A Bb 
Do you ever stop to think, or wonder why

       G Em A 
The nearest thing to heaven is a child.

- - -

    D G 
When you get down on your knees tonight

          D A 
And thank the Lord for his guiding light

    G A 
Pray they turn out right

                        D 
Thank God for kids

   G A D 
Mmmmmmmm thank God for kids

Thank You For Praying chords – Phillips Craig And Dean

 Thank You For Praying – Phillips, Craig & Dean

 Dm7 G7 Am G/B C G/B Am G F G C F G C 
I brushed some pine needles off of memories today
    C F G C G/B 
My fingers traced a stone etched with a date and a name
    Am G F Em 
Of simple country lady so gentle yet so strong
     Dm7 G 
Her mem’ry floods my heart as I recall
     C F G C 
She didn’t have a lot but there was something that she knew
        C F G C G/B 
And it meant the world when she would say son I’ll pray for you
         Am G F Em 
And whenever she would kneel beside her little rocking chair
       Dm7 G 
She’d turn her simple home into a holy house of prayer
     F Em 
And though she’s gone away
          F G E/G# Am Am/G D/F# F G 
There’s something that I really want to say
 C F C G C 
Thank you for praying, praying for me
   C F C G C 
I never could repay the time you spent down on your knees
     F Em 
I’m where I am today 
    F G E/G# Am Am/G D/F# 
Because you chose to pray and intercede
 F G 
Thank you for praying, praying for me

 Dm7 G7 Am G/B C G/B Am G F G C F G C 
Everyone has someone in your life you can recall
   C F G C G/B 
A constant source of strength for you whenever you would fall
     Am G F Em 
And when you felt so lonely in times of desperate need
     Dm7 G 
You knew that you could count on them to be down on their knees
        F Em 
To our heroes of the faith
         F G E/G# Am Am/G D/F# F G 
There’s something that we all would love to say
 C F C G C 
Thank you for praying, praying for me
   C F C G C 
I never could repay the time you spent down on your knees
     F Em 
I’m where I am today
   F G E/G# Am Am/G D/F# 
Because you chose to pray and intercede
 F G 
Thank you for praying
               F 
And when that day comes and all things will be revealed
         Am G 
And our Father lets us see with open eyes
         F 
We will understand that we were carried on the wings
        Dm7 G 
Of the prayers of faithful people in our lives
 C F C G C 
Thank you for praying, praying for me
   C F C G C 
I never could repay the time you spent down on your knees
      <s

Thank You chords – Praise And Worship

 Verse 1
 C 
Thank You for Your kindness
 Am 
Thank You for Your mercy
 F 
Thank You for the cross
                                              C 
Thank You for the price You paid

Verse 2
 C 
Thank You for salvation
 Am 
Thank You for unending grace  
 F 
Thank You for Your hope
                                           C G/B 
Thank You for this life You give

Chorus
             Am F C ,  G/B 
There is no one like You
             Am F G 
There is no one like You God
             Am F C ,  G/B 
All my hope is in You
     F G 
Jesus, Jesus

Verse 3
 C 
Thank You for Your promise
 C/B 
Thank You for Your favour
 F 
Thank You for Your love
                                           C 
Everything You’ve done for me

Bridge
        C 
To Your Name
                         F 
We give all the glory
       Am 
To Your Name
                         F 
We give all the praise
  G C 
You’re alive
                      F 
Our God everlasting
         Am F 
Let Your face shine on us

Thank You Tabs by The Katinas V3

 Thank You (The Katinas) Tab
Jayesslee Version
 Emmanuel Tse
Capo/Tuning: Capo 4- Tabs are in reference to capo, Standard Tuning
This is just my take on Jayesslee’s version, I recommend listening to the video to get 
the timing of the chords down, for example, the chord transitions seem to be slower in 
the chorus
Also, I didn’t know how to show a slap, so for the sake of this tab, the “x” means slap

Intro
=====
  G                      D                         Am               D
|----3--x--3----------------3---x---2-----2h3-----------3--x--3-------3----|
|----3--x--3---------3------3---x---3---------3----0h1--1--x--1----------3-|
|-------x----------0--------2---x---2---2----------2----2--x--2-----0------|
|-------x------0h2-------0------x--------------------------x---------------|
|-------x-----------------------x--------------------------x---------------|
|-3-----x--3--------------------x--------------------------x---------------|


Verse 1
=====
  G                                       D
|-----3----x-----3----------------------------3----x----2-------2h3-------|
|-----3----x-----3-----------3----------------3----x----3------------3----|
|----------x---------------0------------------2----x----2----2------------|
|----------x-----------0h2----------------0--------x----------------------|
|----------x---------------------------------------x----------------------|
|-3--------x-----3---------------------------------x----------------------|
Just a little while longer I wanna pray, can't get you off my mind so I came to say

  Am                          D
|---------3-----x-----3-----------3------x----2-------2h3-------|
|-0h1-----1-----x-----1-----------3------x----3------------3----|
|-2-------2-----x-----2-----------2------x----2----2------------|
|---------------x-------------0----------x----------------------|
|---------------x------------------------x----------------------|
|---------------x------------------------x----------------------|
Thank you Lord, just for loving me

  G                                       D
|-----3----x-----3----------------------------3----x----2-------2h3-------|
|-----3----x-----3-----------3----------------3----x----3------------3----|
|----------x---------------0------------------2----x----2----2------------|
|----------x-----------0h2----------------0--------x----------------------|
|----------x---------------------------------------x----------------------|
|-3--------x-----3---------------------------------x----------------------|
Many times I do forget, every need that you have met

  Am                          D
|---------3-----x-----3-----------3------x----2-----------------|
|-0h1-----1-----x-----1-----------3------x----3-----------------|
|-2-------2-----x-----2-----------2------x----2-----------------|
|---------------x-------------0----------x----------------------|
|---------------x------------------------x----------------------|
|---------------x------------------------x----------------------|
Oh thank you Lord, I know you’re showing me


Pre-Chorus 1
=====
  G   C                   D
|----------------------------------2----------------------------|
|-3------------3----------------3-------------------------------|
|-----------0----------------2----------------------------------|
|--------0----------------0-------------------------------------|
|-2---3---------------------------------------------------------|
|---------------------------------------------------------------|
You are there when I am down and out

  G           C
|-----3--x----3----------3--------------------------------------|
|-----3--x----3--------------3----------------------------------|
|--------x-----------0------------------------------------------|
|--------x------------------------------------------------------|
|-2------x----3-------------------------------------------------|
|--------x-----------------------------

Thank You Jesus chords – Hillsong Live

 Artist: Hillsong Live
Song: Thank You Jesus

Key: F | Capo: 5


This song was recorded by Hillsong Live probably for the next album, and here's an extract.
It comes from the sermon about that song by pastor Brian Houston:



Verse 1:
 C                             
Grace that flows like a river
 G F C 
Washing over me
 C                                                            
Fount of heaven, love of Christ
 G F C 
Overflow in me


Chorus:
           F C     
Thank You Jesus, You set me free
           F C 
Christ my Saviour, You rescued me


Verse 2:
 C 
Take this life delivered
   G F C 
A vessel of Your love
 C                  
Wholly now devoted
    G F C 
To see Your Kingdom come


Chorus (x2):
           F C     
Thank You Jesus, You set me free
           F C 
Christ my Saviour, You rescued me


Interlude:  F G Am C/E F G Am C 


Bridge (x2):
 F 
 You've given me life
 G 
 You've opened my eyes
 Am 
  I love You Lord
 C/E 
   I love You Lord
 F 
 You've entered my heart
 G 
 You've set me apart
 Am 
  I love You Lord
 C 
 I love You Lord


Interlude:  F G Am C/E F G Am C 


Bridge (x2):
 F 
 You've given me life
 G 
 You've opened my eyes
 Am 
  I love You Lord
 C/E 
   I love You Lord
 F 
 You've entered my heart
 G 
 You've set me apart
 Am 
  I love You Lord
 C               ( F G )
 I love You Lord


Chorus:
           F C     
Thank You Jesus, You set me free
           F C 
Christ my Saviour, You rescued me

Thank You God For Saving Me chords – Chris Tomlin V2

 "Thank You God For Saving Me" - Chris Tomlin (feat. Phil Wickham) 
 J.R. Bradford 

Capo 2nd fret 

INTRO:  E A2  (x2) 

VERSE 1: 
            A2 E B C#m 
What can I give to You? What can I offer to the King? 
             A2 E B C#m 
For all the love You've shown, for all Your mercy over me

CHORUS: 
               A2 E 
I called Your name, You heard my cry, 
            A2 C#m 
Out of the grave, and into life, 
             A2 E 
My heart is Yours, my soul is free, 
                   A2 E      
Thank You God for saving me
                   A2              
Thank You God for saving me 

INTERLUDE:  E A2 

VERSE 2: 
                A2 E B C#m 
The Rock of Salvation, my hope is built on nothing less 
            A2 E B C#m 
Morning by morning, how great is Your faithfulness? 

CHORUS: 
               A2 E 
I called Your name, You heard my cry, 
            A2 C#m 
Out of the grave, and into life, 
             A2 E 
My heart is Yours, my soul is free, 
                   A2 E      
Thank You God for saving me
                   A2 E               
Thank You God for saving me 
                   A2         
Thank You God for saving me 

INTERLUDE:  E A2  (x4)  

BRIDGE: 
 E A2 E 
You gave Your life upon the cross, You suffered once for all 
            A2 
You made a way
 E A2 E 
Jesus, in victory, You rose, You made us all your own
            A2 
Now we are saved 
 E A2 E 
You gave Your life upon the cross, You suffered once for all 
            A2 
You made a way
 E A2 E 
Jesus, in victory, You rose, You made us all your own
            A2 
Now we are saved 
 E A2  
Thank You God for saving me (Thank You God) 
 E A2 E  
Thank You God for saving me (Thank You for the cross) 
                   A2 E A2  
Thank You God for saving me, for saving me 

CHORUS: 
               A2 E 
I called Your name, You heard my cry, 
            A2 C#m 
Out of the grave, and into life, 
             A2 E 
My heart is Yours, my soul is free, 
                   A2 E      
Thank You God for saving me
                   A2 E               
Thank You God for saving me 
                   A2 E   
Thank You God for saving me 

Thank God intro Tabs by Counterparts

 --------------------------------------------------------------
                                      Thank God - Counterparts
--------------------------------------------------------------

:magnamanny
mannyd11

Tuning: Drop C

Unfortuantely I'm back again with only another intro tab. 
It really is time consuming to listen to a song repeatedly and to write down what you hear.
My goal is to tab out the entire "The Current Will Carry Us" but it will take some time.
So here's the most i could figure out of this song.

@ 0:00 - 0:10
Guitar 1
E|------------------------------------------------------------------------------|
B|------------------------------------------------------------------------------|
G|------------------------------------------------------------------------------|
D|--7-7-7-7-8-8-7-7-7-7--------------------7-7-7-7-8-8-7-7-7-7------------------|
A|--5-5-5-5-5-5-5-5-5-5--8-8-8-8--8-8-8-8--5-5-5-5-5-5-5-5-5-5--8-8-8-8---8--8--|
E|-----------------------7-7-7-7--5-5-5-5-----------------------7-7-7-7---5--5--|


@ 0:06 - 0:10
Guitar 2
E|----------------------|
B|----------------------|
G|----------------------|
D|--0~~---ps\-----------|
A|--0~~---ps\---8----8--|
E|--0~~---ps\---5----5--|

Thank You – The Veil chords – Heather Clark

 Capo 3

 D A 
Thank You for the cross  -  thank You for your death
                   G A D 
Thank You for the chance to live again - thank You for the blood
                    A G A 
That always covers me - cause everyday I'm falling short of your glo--ry
                   D A 
Thank You for the crown - thank You for the nails
                     G A 
Thank You that your flesh was torn - and that You tore the veil
                    D A 
Thank You for your grace - displayed perfectly
               G A G A D 
When You hung undeserved dying on a tree

    D                                        
I give You my worship - I give You my love - I give You my worship
     G A D 
And all that I'm holding on - I give You my worship - I give You my love
                            G A D G A D 
I give You my worship and all that I'm hol--ding on

                         G A D 
And when the rain comes down - I'll be dancing with You
                   G A D 
And when the fire falls - I'll be dancing with You
                          G A D G A D 
And in the river of Your spirit - I'll be dancing with You

                        G A D 
Place my hands on Your hands - and I dance with You
                        G A D 
Place my feet on Your feet - and I dance with You
                      G A D G A D 
Lay my head on Your shoulder - and I dance with You

 D A D G A 
Jesus Christ - lover of mine - Jesus Christ - I can't wait to be with You
 D A D G A 
Jesus Christ - lover of mine - Jesus Christ - I can't wait to be with You
 D A D G A D 
Jesus Christ - lover of mine - Jesus Christ - I can't wait to be with You

 G A D G A D 
Place my hands on Your hands - and I dance with You
                  G A D 
Place my feet on Your feet - and I dance with You
                     G A D G A D 
Lay my head on Your shoulder - and I dance with You

 D A D G A 
Jesus Christ - lover of mine - Jesus Christ - I can't wait to be with You
 D A D G A 
Jesus Christ - lover of mine - Jesus Christ - I can't wait to be with You
 D A D G A D 
Jesus Christ - lover of mine - Jesus Christ - I can't wait to be with You

 G A D G A D 
Place my hands on Your hands - and I dance with You
                  G A D 
Place my feet on Your feet - and I dance with You
                     G A D     
Lay my head on Your shoulder - and I dance with You

Thank You For Breaking My Heart chords – Alexz Johnson

 Thank You For Breaking My Heart by Alexz Johnson
2013


Standard Tuning
No Capo


Chords:

 C :     x32010
 Gm :    355333
 Am :    x02210
 Bb :    x13331
 F :     x33211 or 133211
 D7 :    xx0212
 E7 :    020100


 C Gm 
 You never took my side
                      Am 
 Never let me shine

 It was never the truth
   Bb F 
 Lies, lies

 C Gm 
 Let me believe 

 That you'll never leave
                  Am 
 I thought I had nothing to lose
   Bb F 
 Why, why

       C G                        
 Now here I am, singing the blues


                F    ( C )       E7 Am 
 But I wanna thank you for letting me down
           F             ( C )        E7 Am 
 Cause I won't fall as hard the next time around
          F D7 G Am 
 I know life isn't fair, and you told me to suffer the scars
                F C G      ( F )
 But I wanna thank you for breaking my heart


 C Gm 
 I let you inside

 I treated you kind
     Am Bb F 
 I wait for you every time and time

 C Gm 
 And I should've known 

 I'd be better alone
       Am 
 But none of it was real
          Bb F 
 I was blind, blind

       C G 
 Now here I am, singing the blues


                F    ( C )       E7 Am 
 But I wanna thank you for letting me down
           F             ( C )        E7 Am 
 Cause I won't fall as hard the next time around
          F D7 G Am 
 I know life isn't fair, and you told me to suffer the scars
                F C G      ( F )
 But I wanna thank you for breaking my heart


 E7 Am 
 If you hadn't left me hurting so bad
 E7 Am 
 No, I'd never know how strong I am
 E7 Am 
 I wouldnt be ready to meet somebody new
     F G 
 A real man


                F    ( C )       E7 Am 
 But I wanna thank you for letting me down
           F             ( C )        E7 Am 
 Cause I won't fall as hard the next time around
          F D7 G Am 
 I know life isn't fair, and you told me to suffer the scars
                F C G      ( F )
 But I wanna thank you for breaking my heart
            F C G F C 
 I wanna thank you for breaking my heart


 End on  C