Tag: there

There Is A Fountain Filled With Blood chords – Norton Hall Band

 There Is A Fountain

Verse 1
       G C G D 
There is a fountain filled with blood drawn from Immanuel's vein
     Em C G D G 
And sinners plunged beneath that flood lose all their guilty stains
      G C G D 
Lose all their guilty stains lose all their guilty stains
     Em C G D G 
And sinners plunged beneath that flood lose all their guilty stains

Verse 2
     G C G D 
The dying thief rejoiced to see that fountain in his day
     Em C G D G 
And there have I, though vile as he, washed all my sins away
        G C G D 
Washed all my sins away, washed all my sins away 
     Em C G D G 
And there have I, though vile as he, washed all my sins away
 
Verse 3
      G C G D 
Dear dying Lamb, thy precious blood shall never lose its power 
      Em C G D G 
Till all the ransomed church of God be saved, to sin no more 
    G C G D 
Be saved, to sin no more, be saved, to sin no more 
      Em C G D G 
Till all the ransomed church of God be saved, to sin no more

Verse 4
      G C G D 
E'er since, by faith, I saw the stream thy flowing wounds supply 
   Em C G D G 
Redeeming love has been my theme, and shall be till I die 
     G C G D 
And shall be till I die, and shall be till I die 
   Em C G D G 
Redeeming love has been my theme, and shall be till I die

Verse 5
      G C G D 
When this poor lisping stamm’ring tongue lies silent in the grave
      Em C G D G 
Then in a nobler sweeter song I’ll sing Thy pow’r to save
      G C G D 
I’ll sing Thy pow’r to save, I’ll sing Thy pow’r to save
      Em C G D G 
Then in a nobler, sweeter song, I’ll sing Thy pow’r to save

Damita Jo – Ill Be There chords

 I'll Be There:Damita Jo.
#12 on BB Hot 100 on MERCURY Records
in 1961.

INTRO:  Bb Gm Eb F 

#1.
         Bb Gm7 
You can reach the top or suddenly drop,
          Eb F Bb 
all your burdens, I'll gladly bear.
 Bb Gm7 
Just run to my arms, yeah, right or wrong,
    Eb F Bb 
no matter what happens, I'll be there.

CHORUS:
 Bb                  
And darling, darling, I'll be there, whoa, 
 Gm7 Eb F Bb 
I'll be there, to protect this love we share.

#2.
 Bb Gm7 
If your friends desert you, yes, when things 
                   Eb F Bb 
go wrong, you can always be sure I care.
 Bb Gm7 
When you face each dawn and you think you 
                  Eb F Bb 
can't go on, you know I'll, I'll be there.

CHORUS:
 Bb                  
Oh, darling, darling, I'll be there, yes, 
 Gm7 Eb F 
I'll be there, I'll always, I'll always be 
 Bb 
there.


INTERLUDE:  Bb Gm7 Eb F  Bb..Bb  Gm7 F Gm7 Eb F Bb 

CHORUS:
 Bb F Bb 
And, darling, darling, I'll be there, whoa-oh, 
 Gm7 Eb F 
I'll be there, I'll always, I'll always be 
 Bb 
there.

OUTRO:
 Bb 
Whenever you're in trouble, darling, I'll be 
                 Gm7 Eb 
there, you know I'll be there, I'll always, 
      F Bb 
I'll always be there, oh, oh, yes..(Fade.)



A sixties smash from Kraziekhat.

Love Me As Though There Were No Tomorrow chords – Glen Campbell

 Love Me As Though There Were No Tomorrow
Glen Campbell

Intro   C 

Chorus 1 

 C Cmaj7 
Love me 
     Am C Dm     
as though there were no tomorrow 
 F G 
take me 
             G7 C Em Am Am7 
out of this world tonight

Verse 1

 Am 
Take me 
          Am7 Em 
make me forget my sorrow
                F 
So when I wake tomorrow 
               C Bb G G7 
I'll know our love was right

Verse 2

 C Cmaj7 
Kiss me 
 Am C Dm 
as though it were now or never 
 F G 
teach me 
              G7 A7 Bm7 Cm7 A A7 
all that our heart should know

Verse 3

      Dm 
Just love me 
    G G7 Bb A 
as though there were no tomorrow
        A7 C Am Dm 
Oh my darling love me 
 G C Dm G 
don't ever let me go

 C Cmaj7 Am C Dm F G G7 A Bm7 G#7 A  

Chorus 2 

        Dm 
Please love me 
    G G7 Bb A 
as though there were no tomorrow
 Am C Am Dm 
Oh my darling love me
        G G# Bb C           
don't ever let me go

flyinglibra51
God Bless Glen Travis Campbell

Im Not There chords – Bob Dylan V4

 ---------------------------------------------------------------------------
                  I’m Not There – Bob Dylan
---------------------------------------------------------------------------
: maguri
Tuning: Standard

Bob Dylan 
I’m Not There (1967)
(Dylan)

From: "The Bootleg Series Vol. 11: The Basement Tapes"

---------------------------------------------------------------------------

capo: 4th fret
play: G
key: B

For original chords transpose this tab +4.

---------------------------------------------------------------------------

BASIC RIFF
   G C/G G C/G G 
  1 + 2 + 3 + 4 +  
e|3---3---3-------|
B|0---0---1-0-1-0-|
G|0---0---0-0-0-0-|
D|0---0---2-0-2-0-|
A|----------------|
E|3-------3-------|

---------------------------------------------------------------------------
CHORDS

          E-A-D-G-B-e
C/G       3-x-2-0-1-3

---------------------------------------------------------------------------


VERSE 1
 G 
Things are crashing down
      G 
She's all too tight
      F 
In my neighborhood
               Am 
She cried both day and night
             G C/G G C/G G 
I know it because it was there


VERSE 2
        G C/G G  
It's a milestone
           F 
But she's down on her luck
         Am 
And the day makes her lonely
        G C/G C C/G G G C/G G  
But to make it hard to buck, now and then


CHORUS 1
   C 
I believe that she'd stop him
        Em 
If she would start to care
     F 
I believe that she'd look upon
     C/G C 
His side that used to care
         Em 
And I'd go by the Lord
                F 
Anywhere she's on my way
               G C/G G C/G G  
But I don't belong there


VERSE 3
      G  
No I don't belong to her
           F 
I don't belong to anybody
          Am 
She's my Christ-forsaken angel
               G C/G G 
But she don't hear me cry


VERSE 4
         G 
She's a lone-hearted mystic
         F 
And she can't carry on
          Am 
When I'm there, she's all right
           G C/G G C/G G 
But she's not when I'm gone


CHORUS 2
        C 
Heaven knows that the answer
           Em 
She’s not calling no one
           F 
She's the way, forsaken beauty
           C 
For she's mine, for the one
       C 
And I lost her, hesitation
        Em 
By temptation as it runs
         Fmaj7  
But she don't holler me
             G C/G G C/G G 
But I'm not there, I'm gone


VERSE 5
          G 
Now I'll cry tonight
        F 
Like I cried the night before
         Am 
And I'm knees on the hassle
          G 
But I'll dream about the door


VERSE 6
         G 
It's so long, she's forsaken
        F 
By her faith, worse to tell
          Am 
It don't have condonation
     G C/G G C/G G 
She smiles, fare thee well


CHORUS 3
          C 
Now when I treat to leave 'er
       Em 
I was born to love her
         F 
But she knows that the kingdom waits
    C 
So high above her
       C 
And I run a better race
          Em 
But i

Half Way There chords – The Vamps

 No Capo

 E B A 
We're somewhere between being friends and something else I really wanna be
 E B A 
You spent a whole year wondering if I see you in the same way you see me
 E B A 
I've been here for a moment, I apologise I guess I just lost my head

          B A 
She said, you can't stop now
                      E 
When you're half way there-ere-ere-e-yeah
                      A 
When you're half way there-ere-ere-e-yeah
               C#m 
And I know, I know you're scared, it's okay
                    A 
But we're half way there   (Woah, woah, woah, woah)

 E B A 
Drive down to NYC just you and me a second I can have some dreams
 E B A 
But dreams are harder to hold onto when you know that you don't have to meet
 E B A 
From time to time, you know in life, when you blow a tire and you've got no spare

              B A 
But she said, we can't stop now
                     E 
When we're half way there-ere-ere-e-yeah
                     A 
When we're half way there-ere-ere-e-yeah
               C#m 
And I know, I know you're scared, it's okay
                    A 
But we're half way there   (Woah, woah, woah, woah)

 E  
Take your time
                                       B 
The way is long and all the roads are open wide
                                   C#m 
Praying every time that you don't change your mind
                                 A 
Keep on moving forward one mile at a time (Woah, woah, woah, woah)

                     E 
Cause we're half way there-ere-ere-e-yeah
                     A 
When we're half way there-ere-ere-e-yeah
               C#m 
And I know, I know you're scared, it's okay
                    A 
But we're half way there   (Woah, woah, woah, woah)
 E B A 
We're something between being friends and something else I really wanna be
 E B A 
You spent a whole year wondering if I see you in the same way you see me   (Woah, woah, woah, woah)

Gingerten – Hey There Rose Tyler chords

 Hey There Rose Tyler By GingerTen


Capo on 2
Intro:  C , Em , C , Em 


VERSE 1:
 C Em 
Hey there Rose Tyler, what’s it like in your dimension?
             C Em 
I’m a thousand worlds away, but I’m still seeing your reflection,
        Am F G Am 
In the blue, my hearts are broken without you,
              G 
I swear it’s true. 
 C Em 
Hey there Rose Tyler,  don’t you worry ‘bout my safety 
      C 
If I ever get in trouble, i’ll just run and shout ALLONS-Y, 
         Am F G Am 
Nothing new, still got some running left to do, 
            G 
I’ll run to you… 


CHORUS:
 C Am C Am 
Oh!it’s what you’ve done to me, oh, across the galaxies. 
 C Am F Am 
Oh,it’s what you’ve done to me, oh, you and your BAD WOLF tendencies, 
                     C 
What you’ve done to me…


VERSE 2:                    
 C Em 
Hey there Rose Tyler, when I’d first regenerated,
        C Em              
I knew something now was different, and simply fascinating,
        Am F G Am 
It was you, I found love inside that box of blue,
            G 
And so did you. 
 C Em 
Hey there Rose Tyler, I’ve got so much left to say 
         C Em Am  
If it’s my last chance now to tell you true,that I’ve wanted to say this for some time 
      F G Am 
Please don’t forget me now, don’t cry… 
            G*
Rose Tyler, I… 


CHORUS:
 C Am C Am 
Oh! It’s what you’ve done to me! Oh, across the galaxies…
 C Am C Am                         
Oh, it’s what you’ve done to me! Oh, you and your BAD WOLF tendencies… 


BRIDGE:
 F G      
I’d walk 500 miles for you, 500 more, and when I’m through 
 C Am 
I’d fall down at your door and then I’d say…
 F G Am 
Rose Tyler there’s not time enough , to tell you all the ways I think you’re brilliant
          G 
And I’ve missed you since that day… 
 F G 
Rose Tyler I can promise you, that I’d break time and space for you, 
     Am G 
The universe will remember your name! I’m on my way! 


VERSE 3:
 C Em 
Hey there Rose Tyler, you be good and don’t you miss me
            C Em 
You’ve got TenToo now to help you through, but I can’t re-write hist’ry, 
 Am G Am 
Not this time, there’s nothing I would rather do… 
 F G Am 
But I’ll stand at Bad Wolf Bay with you… 
 F G Am 
Hey there Rose Tyler Don’t be blue… 
           G *
Just kiss TenToo…


FINAL CHORUS:
 C Am C Am 
Oh! It’s what you’ve done to me! Oh, across the galaxies. 
 C Am C Am            
Oh! It’s what you’ve done to me! Oh, you and your BAD WOLF tendencies, 
                     C 
What you’ve done to me… 
 Am 
Oh-OH 
 C 
O-OH
 Am 
Whoa-o-o-oa! 
 C 
Oh-oh, whoa-o-o-oo,
 Am 
Whoa-o-o-o-o, 
 C 
Oh-OH 
 C 
Oh-OH

Meet Me There chords – Nick Mulvey V2

 Nick Mulvey - Meet me there

simplified to the version with a capo on the 2nd fret

Capo 4th fret

Chords

 Dm7              xx0211
 D7sus2           xx0210
 Cadd9            x30010
 C/G              3x2013
Fma13(b5,#9)    100100 
Fma7(b5)        103200 
 Fmaj7            133200
Fm(ma13)(#11)   130200
Cma11(omit5)/F  130400
F6(#11,omit3)   1305xx
Dm*             x57565 Or x57568 or x57555
                                        h
                                    x57565


Intro 
                                     

 Dm7 D7sus2 Dm7 D7sus2  
C (Cadd9 hammer on back to C) C  G (hammer on C/G back to G) G


 Dm C G 
After all the people picking people picking people apart, my love
  Dm C G                         
And after all the dealing, the hooking and reeling along from the start
 Dm C G 
Ohhhhhhh there's a field, meet me there
 Dm C G 
Out beyond rightness and wrong, meet me there
 Dm C G 
Woman you're leaving, loving, you're leading me on
 Dm C G 
Living I'm alive, sweet woman, keep loving me on


 Dm                                                     
Cause they wake up every morning with the cradle in their hands,
          C G 
but they pretend it's a game
 Dm C G 
Acting like the only place the truth could ever live was up on Shacklewell Lane
 Dm C G 
Ohhhhhhh there's a field, meet me there
 Dm C G 
Please come along, tie back your hair

[break]

Fma13(b5,#9) Fma7(b5) Fma13(b5,#9) Fma7(b5)
mmm mmmmmm mmmmmm mmmmmmm
Fmaj7  Fm(ma13)(#11)  Cma11(omit5)/F  F6(#11,omit3)
mmm mmmmmm mmmmmm mmmmmmm


 Dm C G 
I tried yesterday, it takes me so long to say, but I need you to know
 Dm C G                 
Darling you show, by leaving me so, the only way to hold on is keep letting go
 Dm C G 
Ohhhhhhh there's a field, meet me there
     Dm C G 
No I'm on my way, meet me there



[break]

Fma13(b5,#9) Fma7(b5) Fma13(b5,#9) Fma7(b5)
mmm mmmmmm mmmmmm mmmmmmm
Fmaj7  Fm(ma13)(#11)  Cma11(omit5)/F  F6(#11,omit3)
mmm mmmmmm mmmmmm mmmmmmm



Dm*                                C G 
Ohhhhhhh there's a field, meet me there
Dm*                                     C G 
Out beyond rightness and wrong, meet me there
Dm*                       C G 
I'm on my way, meet me there
Dm*                         C G 
Please come along, tie back your hair
 Dm C G 
After all the people picking people picking people apart, my love

I Will Be There chords – Katie Melua V2

  
------------------------------------------------------------------------------------------------
(Katie Melua) I Will Be There (Full Concert Version)
Chord: version 2.. By Mats Fagergren. 2014-12-08


The guitar shall be played with "staccato full picking"

Intro (from when the guitar starts to play):

 D D D/C G/H G/Bb D D D Cmaj7 
1. She is like the lady down the road
                              Bm 
    Or just the women up the street, 
                             C A 
    like any mother you may know.
        D Cmaj7 
    To me, she is the one who had it planned
                            Bm 
    to lead us all to Wonderland, 
                            Am7 A 
    she always wanted us to go.      And she said : 
Chorus
     D A Bm G D 
    Don’t ever be lonely remember I’ll always care.
     D A Bm G D 
    Wherever you may be, remember I will be there.

 D D/C G/H G/Bb D D Cmaj7 
2. And like another lady that we know,
                                   Bm 
    she has a smile so bright and sweet, 
                                 C A 
    and hair as white as driven snow.
            D Cmaj7 
    Though life is never easy day to day, 
                            Bm 
    she has a very special way
                                  Am7 A 
    to make us smile when we are low.          And she says:

Chorus
 D A Bm G D 
Don’t ever be lonely remember I’ll always care.
 D A Bm G D 
Wherever you may be, remember I will be there.

 D A Bm G D 
Don’t ever be lonely remember I’ll always care.
 D A Bm G D 
Wherever you may be, remember I will be there.


Instrumental  D A Bm G D Bm D/A Bb7 Eb Bb Cm Ab Eb 
Don’t ever be lonely remember I’ll always care.
 Eb Bb Cm Ab Eb 
Wherever you may be, remember I will be there.


  Bb ----  Bb Eb  
I will be there.............
  Bb ----  Bb Eb  
I will be there.................                              

( original then a capo 2nd  fret played in the key of “C”) 

Chords e,a,d,g,h,e
D      x,x,0,3,2,3
D/C    x,3,0,3,2,3
G/H    x,2,0,0,3,3
G/Bb   x,1,0,0,3,3
Cmaj7  x,3,5,4,5,3
e guitar shall be played with 

Out There Tabs – Itchy Poopzkid

 -------------------------------------------------------------------------------
                             OUT THERE - Itchy Poopzkid
-------------------------------------------------------------------------------
: Dennis Kohlmann (denniskohlmann)
 pm me

 ??? (coming in April 2015)
Tuning: Drop C#
Tabs from: denniskohlmann


----- !!! WARNING !!! -----
Usually, they play their songs in Eb-tuning.
This song is NOT played in this tuning, it's in Drop C#.
"Said You'd Be There" is in Drop C# too, i don't know more songs at the moment, they are just exceptions.
You can play it in Eb too, but you have to play the '0's on 
the Db-string with the 5th fret on the Ab-string, but this is harder than in this tuning.
These are tabs only, you have to find out the strumming yourself.


Now have fun playing, I hope you enjoy!


Verse
Eb|----------------------------------|----------------------------------------|
Bb|----------------------------------|----------------------------------------|
Gb|----------------------------------|-always-3-times-------------------------|
Db|----------------------------------|------then------------------------------| (3x, only the first time!)
Ab|-5-5------------------------------|----------------------------------------|
Db|------7-8-8--5-7-7--3-5-3-2-------|------------7-3-0--5-3-7-3-0------------|

Bridge
Eb|---------------------------------------------------------------------------|
Bb|----------------------10-10-10-10------------------------------------------|
Gb|------2~--2~--2~--2~--9--9--9--9-------------------------------------------|
Db|------2~--2~--2~--2~--7--7--7--7-------------------------------------------|
Ab|------0~--0~--0~--0~--0--0--0--0-------------------------------------------|
Db|-0--0----------------------------------------------------------------------|

Chorus
Eb|---------------------------------------------------------------------------|
Bb|---------------------------------------------------------------------------|
Gb|-7--7--7--7--4--4--4--4----------------------------------------------------| (2x)
Db|-7--7--7--7--4--4--4--4--5--5--5--5--8--8--7--7----------------------------|
Ab|-5--5--5--5--2--2--2--2--5--5--5--5--8--8--7--7----------------------------|
Db|-------------------------5--5--5--5--8--8--7--7----------------------------|

Interlude (like the intro, just with powerchords)
Eb|----------------------------------|--------NOT-BEFORE-BREAKDOWN!!!---------|
Bb|----------------------------------|--------NOT-BEFORE-BREAKDOWN!!!---------|
Gb|-7-7------------------------------|-3-times--------------------------------|
Db|-7-7--7-8-8--5-7-7--3-5-3-2-------|---then----7-3-0--5-3-7-3-0-------------|
Ab|-5-5--7-8-8--5-7-7--3-5-3-2-------|-----------7-3-0--5-3-7-3-0-------------|
Db|------7-8-8--5-7-7--3-5-3-2-------|-----------7-3-0--5-3-7-3-0-------------|

Verse (2x)
Bridge
Chorus
Interlude

Breakdown
Eb|------------------------------------------------------------------------------|
Bb|------------------------------------------------------------------------------|
Gb|------------------------------------------------------------------------------|
Db|----------------------------------------------------------------------------7-|
Ab|----------------------------------------------------------------------------5-|
Db|-0--0--3b--0--0--3b--0--0--3b--0--0--6--0--0--3b--0--0--3b--0--0--3b--0--0----|
    *  *      *  *      *  *      *  *     *  *      *  *      *  *      *  *

Eb|------------------------------------------------------------------------------|
Bb|------------------------------------------------------------------------------|
Gb|------------------------------------------------------------------------------|
Db|------------------------------------------------------------------------------|
Ab|------------------------------------------------------------------------------|
Db|-0--0--3b--0--0--3b--0--0--3b--0--0--6--0--0--3b--0--0--3b--0--0--3--7--5--

There Aint No Way chords – Lobo

 THERE AIN'T NO WAY
Lobo


INTRO:

| A G   | D     | D     |

| A G   | D     | D     |

| A G   | D     | D     |

| D     |

VERSE 1:
 D 
The dirty rain is falling
                             G 
I hear the wind calling me away
 A 
The motel sign is flashing

And in my mind I'm crashing
         Bm A D 
What to say,     what to say?

VERSE 2:
     D 
The words they start flowing
                                         G 
And passions started growing like years ago
     A 
The wine made my mind crazy

But now I'm not so hazy
         Bm A D A 
I gotta go,     I gotta go  

CHORUS:
         Bm A 
Oh, the love we made today
        Bm A 
It was just a foolish way
           G D 
To try to bring back yesterday
                A 
There ain't no way

           Bm A 
Yeah, the love we made today
        Bm A 
It was just a foolish way
           G A 
To try to bring back yesterday
                D A 
There ain't no way    

INTERLUDE:
| A G   | D     | D     |

| A G   | D     | D     |

| D     | A     | D     | D     |

VERSE 3:
 D 
The dirty rain is falling
                                 G 
And in my mind it's calling me away
 A 
  I'm staring at the ceiling

I can't let that feeling
         Bm A D A 
Make me stay,      I just can't stay

CHORUS:
         Bm A 
Oh, the love we made today
        Bm A 
It was just a foolish way
           G D 
To try to bring back yesterday
                A 
There ain't no way

           Bm A 
Yeah, the love we made today
        Bm A 
It was just a foolish way
           G A 
To try to bring back yesterday
                D A 
There ain't no way   

Yeah, the [Bm]love we made to[A]day
           Bm A 
Yeah, the love we made today
        Bm A 
It was just a foolish way
           G A 
To try to bring back yesterday
                D A 
There ain't no way   
                D A 
There ain't no way   
                D A 
There ain't no way   
                D A 
There ain't no way   
                D A 
There ain't no way   

FADE

If Marys There chords – Brian Hyland

 If Mary's There:Brian Hyland.
#88 on BB Hot 100 on ABC Records
in 1963.

INTRO:  D 

#1.
 D Em 
I won't be there if Mary's there..
     A D 
I'm still in love with her.
 D Am7 Em 
I couldn't bear to see her there..
        A 
I'd be alone and blue..she'd be with 
                  G Gb 
someone new, without a care.

BRIDGE:
 Bm G Gbm 
I won't be there if Mary's there..
                G 
I love her too much.
 G Em Bm G Bm D 
We'd be but just a kiss away and never 
 G A 
ever touch.

#2.
 D E Em A 
It isn't fair to ask me there..I know 
           D 
I'll only cry.
 D D7 G Em 
I won't be there, if Mary's there..
      Gbm A D 
I'll love her till I die.


INTERLUDE:  D G A Em A  D..D  Bb D G  Em..D  A Db D 

#3.
 Bm G        
I couldn't bear, to see her there..
 D G 
I'll only cry.
       D G E 
No, I won't be there, if Mary's there..
 Em Gbm G A Gb Bb D 
I'll love her till I-I-I die.

OUTRO:  G D 


A sixties smash from Kraziekhat.


Would You Still Be There Tabs by Of Mice And Men

 Would You Still Be There Tabs 
Artist: Of Mice & Men
 Restoring Force
Tab by: http://www.youtube.com/jamesmouamusic


Of Mice & Men - Would You Still Be There (Official Video) 

 
Of Mice & Men FB page... 
https://www.facebook.com/ofmice 
 
Of Mice & Men Rise Records page... 
http://www.riserecords.com/press-assets-details.php?artist=Of_Mice_%26_Men_31


b: bend 
/: slide 
*: palm mute 
h: hammer on 
~: let it ring 
p: pinch harmonic 
/////: picking tremolo
x: scratch
po: pull off



INTRO:
D||-------------------------------------------------------------------------|
A||-------------------------------------------------------------------------|
F||-------------------------------------------------------5p----------------|
C||-10-0-0--00--0h2-2-x-0h2-2-x-------5-4--0h2-2--x0h2--5p--5p--------------|
G||-10-0-0--00--0h2-2-x-0h2-2-x-0-2h5------0h2-2--x0h2----------------------|
C||-10-0-0--00--0h2-2-x-0h2-2-x------------0h2-2--x0h2----------------------|


D||-------------------------------------------------------------------------|
A||-------------------------------------------------------------------------|
F||-------------------------------------------------------------------------|
C||-0h2-2-x-0h2-2-x-------5-4--0h2-2--x0h2----------------------------------|
G||-0h2-2-x-0h2-2-x-0-2h5------0h2-2--x0h2----------------------------------|
C||-0h2-2-x-0h2-2-x------------0h2-2--x0h2----------------------------------|



VERSE 1:
D||-------------------------------------------------------------------------|
A||-------------------------------------------------------------------------|
F||---------------------------------------------------------[REPEAT x2]-----|
C||-22-4h5po4---------222h4-----22-4h5po4---------4-------------------------|
G||-22--------222-555-----------22--------222-555---55----------------------|
C||-22--------------------------22------------------------------------------|
    **        *** *** **        **        *** ***

D||-------------------------------------------------------------------------|
A||-------------------------------------------------------------------------|
F||-------------------------------------------------------------------------|
C||-77-7h9po7------------777h9---77-7h9po7------------777h9-----------------|
G||-77--------777-101010---------77--------777-101010-----------------------|
C||-77---------------------------77-----------------------------------------|
    **        *** * * *          **        *** * * *  **

D||-------------------------------------------------------------------------|
A||-------------------------------------------------------------------------|
F||-------------------------------------------------------------------------|
C||-22-4h5po4---------222h4-----22-4h5po4----------4--------7~--5~----------|
G||-22--------222-555-----------22--------222-5555---55-----5~--3~----------|
C||-22--------------------------22------------------------------------------|
    **        *** *** **        **        *** **** 



CHORUS:
D||-------------------------------------------------------------------------|
A||-----------------------------------------------------------[REPEAT x2]---|
F||-------------------------------------------------------------------------|
C||-22-00-22/555555--22-00-22/555/777--22-00-22/555555--5-(x8)--------------|
G||-22-00-22/555555--22-00-22/555/777--22-00-22/555555--3-------------------|
C||-22-00-22/555555--22-00-22/555/777--22-00-22/555555--------0-0-000~------|



FILL-IN:
D||-------------------------------------------------------------------------|
A||-------------------------------------------------------------------------|
F||-------------------------------------------------------5p----------------|
C||-10-0-0--00--0h2-2-x-0h2-2-x-------5-4--0h2-2--x0h2--5p--5p--------------|
G||-10-0-0--00--0h2-2-x-0h2-2-x-0-2h5-----

There There Tabs by The Wonder Years V3

 This is the intro track off The Wonder Years 4th album The Greatest Generation. It 
is played in Drop Db (Drop C#) and is easily my favorite song on the album so I 
touched up the tabs that were already posted. They're not perfect but I feel like 
these are clearer and closer to being right so I hope you all enjoy.

Intro x2
Rhythm Guitar
|-------------------------------|
|-------------------------------|
|-------------------------------|               X2
|-1111111111111111--------------|
|-7-7-7-7-7-7-7-7-9999-11111111-|
|-7-7-7-7-7-7-7-7-7777-7-7-7-7--|

|------------------|
|------------------|
|------------------|      x2
|-7777777777777777-|
|-0000000000000000-|
|-0000000000000000-|

Chorus 1
Rhythm Guitar
|-------------------------|
|-------------------------|
|-------------------------|
|--44-77-7--0-0-2222------|
|--44-77-7--0-0-2222------|
|--44-77-7--0-0-2222------|

Lead Guitar
|---------------------------|
|-10-10-9-------------------|
|---------9-9-----9---------|
|-------------9-11--11-9-77-|
|---------------------------|
|---------------------------|
                                X2
|---------------------------|
|-10-10-9----------------10-|
|---------9-9-----9-----9---|
|-------------9-11--9-11----|
|---------------------------|
|---------------------------|

Verse
Rhythm Guitar
|-------------------|
|-------------------|
|-------------------|   X4
|-77777777-00000000-|
|-77777777-00000000-|
|-77777777-00000000-|

Lead Guitar
|---------------------------|
|-10-10-10-10--9-9-9-9------|
|---9--9--9--9--9-9-9-9-----| 
|---------------------------|
|---------------------------|
|---------------------------|
X2      
|----------------------------|
|10p9------------------------|
|----9--9-----9------------9-|
|-----11--9-11--11-9-7-9-11--| 
|----------------------------|
|----------------------------|

Chorus 2
Rhythm Guitar
|-------------------------|
|-------------------------|
|-------------------------|
|--44-77-7--0-0-2222------|     x4
|--44-77-7--0-0-2222------|
|--44-77-7--0-0-2222------|

Lead Guitar
|---------------------------|
|-10-10-9-------------------|
|---------9-9-----9---------|
|-------------9-11--11-9-77-|
|---------------------------|
|---------------------------|
                                X4
|---------------------------|
|-10-10-9----------------10-|
|---------9-9-----9-----9---|
|-------------9-11--9-11----|
|---------------------------|
|---------------------------|

Bridge
Rhythm Guitar
|---------------------------------------------------------------------|
|---------------------------------------------------------------------|
|---------------------------------------------------------------------| X2
|-77777777777777777777777777777777-0-0-000000000000000000000000000000-|
|-77777777777777777777777777777777-0-0-000000000000000000000000000000-|
|-77777777777777777777777777777777-0-0-000000000000000000000000000000-|
                                                    * *

Lead Guitar
|----------------------------------|
|-9b10r9b10r9----------------------|
|------------9-----9------------9--| X4
|--------------9-11--11-9-7-9-11---|
|----------------------------------|
|----------------------------------|

Chorus 3
Rhythm Guitar
|-------------------------|
|-------------------------|
|-------------------------|
|--44-77-7--0-0-2222------|     x3
|--44-77-7--0-0-2222------|
|--44-77-7--0-0-2222------|

|-------------------------|
|-------------------------|
|-------------------------|
|--44-77-7--0-0-2222------|     
|--44-77-7--0-0-2222------|
|--44-77-7--0-0-2222------|
                ****
Lead Guitar
|---------------------------|
|-10-10-9-------------------|
|---------9-9-----9---------|
|-------------9-11--11-9-77-|
|---------------------------|
|---------------------------|
                                X4
|---------------------------|
|-

There Are A Few Days Every Tabs by Rodrigo Sousa

 E -------------------------------|
B -------------------------------|
G -12-12-12-12-12-12-12-12-12-12-|
D -------------------------------|
A -------------------------------|
E -------------------------------|

Repete essa tab durante a fala.

Baby, Let me tell you something?
With you, my days are not any few days
Always with you.

Em

Uhhh, Always with you!

G

Uhhhh! Always with you!!!


F#

Na na na na na na na. Love you!
Na na na na na na na. You are in my heart. Heart...


                                 SOLO

Am A D D7+

E ---------20p18--|
B ----------------|
G ----------------|
D ----------------|
A ----------------|
E ----------------|


Final : C C# D E F G A B

There Is No Remaining In Place chords – Dragonfly Collector

 i decided to make a tab/chord tutorial for this song kasi nagandahan talaga ko, 
it's hauntingly beautiful, may something sa kanya na medyo horror pero ang ganda, 
similar sa playstyle ng Lacrymosa ng Evanescence

since wala pang tabs sa website nila, gumawa ko ng akin, so enjoy na lang po, kayo 
na po bahala sa timing


"There is no Remaining in Place"

Intro:  E  -  E7  (4x)

 E Am 
  I cant find the right notes for you
              E 
  To curl my back with
  Am E 
  Crawl into amorphous space and back
          Am 
  So Ill play the drums instead
       Am B7 C D E  -  E7  -  E  -  E7 
  And beat a path to your door
               Am 
  Cause there are no wrong turnings
  Am B7 C D E D  -  C  -  B7 
  Being betrothed to the unknown
           Am Am +M7
  I see a vision of stellar proportions
         Am7 D7 
  A revolution of stars and constellations
  G E7 
  Licking my heart into shape
  Am Am +M7
  Wandering around with a rucksack
  Am7 D7 
  Climbing steep mountains to pray
 G E7 
  How I smile as I follow a trail
 Am Cm G 
  When the ascent lights up a soul
            E7 Am Cm  -  G  -  B7 
  There is no remaining in place

Instrumental:  E  -  E7  (4x)

 E Am 
  I dont know the right words to say
                   E 
  To breathe this wanting
  Am E 
  Give up these things that weigh me down, I fly
          Am 
  So Ill play the drums instead
       Am B7 C D E  -  E7  -  E  -  E7 
  And beat a path to your door
               Am 
  Cause there are no wrong turnings
  Am B7 C D E D  -  C  -  B7 
  Being betrothed to the unknown

(Nooooo.....)  E  -  D  -  C  -  B7 

Outro:
 Em  -  Am  -  Em  -  Am  -  E 

*end*

kung may tanong pa po kayo pm nyo lang e-mail add ko at evol1961, or sa 
fb ko at https://www.facebook.com/evol.dan.big.tots


thanks ultimate-guitar!
1-31-2014
2:15pm


bandpage: http://dragonflycollector.com/

Is There A Way Out chords – Get Up Kids

 The Get Up Kids
Is There A Way Out?
Guilt Show
2004 Vagrant Records
Submitted by: jeremyunderground41

Key:  C ,  G 

Tuning: Standard EADGBe

Chords used:
 C  -  x32010
 G  -  320003
 Em  - 022000
 F  -  133211
 B  -  x24442


Intro: 
C--Em--
C--Em-G-C---


Verse 1:
 F C 
  If ever im wrong
 F C 
  whatever i do
 F C 
  if anyone asks
           Em 
i will be hiding
      D F 
from you if ever
    C F 
i speak put words
       C F 
in my mouth it's
       C B G 
only speech and sound


Chorus 1:
            C Em 
is there a way out?
 C 
  i've got this
             Em 
blood on my hands
and if there's
      C Em 
some safe ground
   B       C--
im all for it


Verse 2:
 F C F 
  if ever untrue then
               C 
how would you know?
 F C 
  what would you do
                 Em 
where would you go?
     F F 
you go, if ever i
 C F 
lied what would it
 C F 
be if i were to
 C 
die because you
    B G 
discovered me


Chorus 2:
            C Em 
is there a way out?
 C 
  i've got this
             Em 
blood on my hands
and if there's
      C Em 
some safe ground
   B       C--
im all for it
            C Em 
is there a way out?
 C 
  i've got this
             Em 
blood on my hands
and if there's
      C Em 
some safe ground
    B C Em 
im all for it
    B C (hold)
im all for it


Interlude: 

Piano:
G-B-Em-- x4


Outro:
Distortion going back to piano fade
G-B-Em-- x9, B--

Im Not There chords – Kevin M Thomas

 Words by Kevin M. Thomas
Music by Kevin M. Thomas
Copyright 2013 Kevin M. Thomas

VERSE 1 ( G G C Dsus4/F  Dadd11)
There you walk right through the door.
Not a word spoken, nothing more.
With him then, you're arm-in-arm.
I look away, not to raise alarm.
There you go again I say.
But suddenly you look away.
I try to play it off again.
Except this time, I'm not here to win.
No, ooh.

CHORUS ( G F C Bb D )
We've been good friends all through the years.
Now you take the plunge again.
A wedding date you all have set. 
I fake a smile and place my bet.
That at the time, it's time to sign.
You take a step back as you find.
Me standing there without a care.
But you lock eyes and numb I feel your stare.
I feel your stare, ooh.

BRIDGE ( G F C Bb D ) 
Me standing there right next to you.
I'm wondering what I'm gonna do.
I can't keep playing rebound games.
It's time you make your mind up.
Once again, again, ooh. 
And suddenly you find.
That I'm not there.
I'm not there.
Ooh.
Yeah I'm not there.
I'm not there.
Yeah.
Suddenly you find that I'm not there.

You Can See Me There chords – Nik Freitas

 Nik Freitas - You can See Me There

 Bb Cm Bb Cm 

Caught inside a camera
                           Bb Cm 

Well, there's some memories I won't speak

   Bb Cm 

I threw away the obvious

             Bb Cm 
Just to keep my spirits Clean

 Eb F7 
  Some where there's pictures of

                               Gm 
People that fell in love today

 F Eb F 
Maybe it was you

   Bb Cm 

I took a plane from here to there

            Bb Cm 
And I thank my friend for that

   Bb Cm 
I saw things I'd already seen
               Bb Cm 
But what a different view I had

 Eb F7 
   Well someone's got pictures of
                               Gm 
People that fell in love back then
     F Eb Eb/D Cm 
And maybe it was true
                                   D 
There sitting in a box somewhere

                Gm F 
Taking up room
 Eb F 
You can see me there

 Bb Cm Bb Cm  (Then walks up to  F )



 F Eb 


Turning back the clock now

          (A little Lick starts here) (Use you ear)

In my mind

 Cm D Gm 
   I can see whatever I want at any time

 Db 
And all these pictures that I have now,
                   F 

I'm throwing them away

 Bb Cm Eb F 

Oooohh Hoooo hoooo Ooooohh

 Bb Cm Eb F 
Oooohh Hoooo hoooo Ooooohh

(instrumental)

 Ab    , Cm    ,  Eb ,    F Bb Cm 
Drove up to visit my folks
         Bb Cm 
Just to see if they were okay
         Bb Cm 
There's photos up when they were young
        Bb Cm 
And to me, they still look the same
 Eb F7 
Somewhere there's pictures of
                               Gm 
People that fell in love back then
        Eb F 
And it could be you

 Cm D 
There sitting in a box somewhere
                        Gm F 
Wondering where to go
       Eb F 
Well, you can see me there
 Bb Cm 
You can see me there
 Bb Cm 
You can see me there
 Bb Cm 
You can see me there

You can sem me there.....................

I Know You There chords – Praise And Worship

 Intro:  E B C#m A E B 
If all I had was one last breath
                                C#m 
I'd spend it just to sing Your praise
                   A 
Just to say Your name
          E B 
If all I had was one last prayer
                                  C#m A 
I'd pray it 'cause I know You're always listening
             E B 
If I could live a thousand lives, bind the hands of time
 C#m A 
I would spend every moment by Your side
         
        E Ebm C#m 
'cause I, I know You're there, I know You see me

You're the air I breathe
     A 
You are the ground beneath me
 E Ebm C#m 
I know You're there, I know You hear me
                   A 
I can find You anywhere

           E B 
If all I had was one more song to sing
                 C#m A 
I would raise my voice to make the heavens ring
              E B 
If all I had was one last chance, I'd take it
                  C#m A 
I would stake it all on You

    E B 
If I could raise up high and catch a glimpse of every eye
         C#m 
I would make them believe
 A 
What I feel inside

    F# A                             
If I could live a thousand lives and bind the hands of time
 E B 
Oh, oh oh….  Oh, oh, oh
    F# A 
If I could rise up high and catch a glimpse of every eye


                E 
I know You're there
        Ebm C#m A 
I know You're there
               E Ebm C#m A          
I know You're there, You're there

Already There chords – Praise And Worship

 Intro: ( F# G#m E E G#m F# ) x3
         F# G#m C#m C#m E F# 

Verse 1
                F# G#m E 
From where I’m standing
               E G#m F# 
Lord, it’s so hard for me to see
               F# G#m E 
Where this is going
     E G#m F# 
And where You’re leading me
          F# G#m E 
I wish I knew how
        E G#m F# 
All my fears and all my questions
              F# G#m E 
Are going to play out
      E G#m F# 
In a world I can’t control

 F# G#m C#m C#m E F# 

Chorus
                      G#m 
When I’m lost in the mystery
                       E 
To You my future is a memory
               B 
‘Cause You’re already there
        F# 
You’re already there
                 G#m 
Standing at the end of my life
                E 
Waiting on the other side
            B 
And You’re already there
        F# 
You’re already there

 F# G#m E E G#m F# 

Verse 2
                   F# G#m E 
From where You’re standing
           E G#m F# 
Lord, You see a grand design
          F# G#m E 
That You imagined
          E G#m F# 
When You breathed me into life
             F# G#m E 
And all the chaos
         E G#m F#  
Comes together in Your hands
              F# G#m E 
Like a masterpiece
         E G#m F# 
Of Your picture-perfect plan

Chorus

Bridge
 C#m 
One day I’ll stand before You
     G#m 
And look back on the life I’ve lived
   C#m 
I can’t wait to enjoy the view
     G#m 
And see how all the pieces fit


 G#m 
One day I’ll stand before You
     E 
And look back on the life I’ve lived
               B 
‘Cause You’re already there
        F# 
You’re already there
                      G#m 
When I’m lost in the mystery
                       E 
To You my future is a memory
               B 
‘Cause You’re already there
        F# 
You’re already there
                 G#m 
Standing at the end of my life
                E 
Waiting on the other side
            B 
And You’re already there
        F# 
You’re already there