Tag: these

Thru These Tears chords by LANY

[Intro]
B G#m F# E

[Verse 1]
B
This hurts like hell
           G#m
But I keep telling myself
               F#
It's gonna get better
                E
But it's taking forever
B
I tried to go out
               G#m
But every time I leave the house
            F#
Something reminds me
                E
Of what's now behind me

[Pre-Chorus]
C#m        D#m
Everyday I let go
E             F#
Just a little bit more

[Chorus]
B                         G#m
In the end I'm gonna be alright
                                       F#
But it might take a hundred sleepless nights
                                E
To make the memories of you disappear
                                                B
But right now I can't see nothing through these tears

[Verse 2]
B
Control my thoughts
             G#m
Convincing myself it's your loss
         F#
I really mean it
                      E
And I'm starting to believe it

[Pre-Chorus]
       C#m        D#m
'Cause everyday I let go
E             F#
Just a little bit more

[Chorus]
B                         G#m
In the end I'm gonna be alright
                                       F#
But it might take a hundred sleepless nights
                                E
To make the memories of you disappear
                                                B
But right now I can't see nothing through these tears
                                      G#m
Out of sight but you're not out of my mind
                                  F#
So it might take somebody else at night
                                     E
To make it feel like you were never here
                                                B
But right now I can't see nothing through these tears

[Instrumental]
B G#m F# E

[Bridge]
    B
You said it was over
    G#m
But when we got closer
    F#
You cried on my shoulder
    E
Goodbye

[Chorus]
B                         G#m
In the end I'm gonna be alright
                                       F#
But it might take a hundred sleepless nights
                                E
To make the memories of you disappear
                                                B
But right now I can't see nothing through these tears
                                      G#m
Out of sight but you're not out of my mind
                                  F#
So it might take somebody else at night
                                     E
To make it feel like you were never here
                                                B
But right now I can't see nothing through these tears

[Outro]
B                            G#m
Driving home on an empty highway
                                  F#
I thought about you and I hit the brakes
                                   E
What we had and who we were was so clear
                                                B
But right now I can't see nothing through these tears

If These Old Walls Could Speak chords – Glen Campbell

 If These Old Walls Could Speak
Glen Campbell
written by Jimmy Webb

Intro   F Bb F C F Bb F C 

Verse 1  

    Bb C Bb C F 
If these old walls, if these old walls could speak.
 Bb F C Dm F C Bb   
What a tale they have to tell, hard headed people raisin'hell
             C F Bb                 
A couple in love livin' week to week.
       C7 F Bb C       
Rooms full of laughter, if these  walls could speak.

Verse 2


 Bb C Bb C F         
If these old halls, if hallowed halls could talk.
 Bb F Dm F C Bb     
These would have a tale to tell, the sun goin' down and dinner bells.
              C F Bb         
And children playin' at hide and seek.
      C7 F Bb C Bb           
From floor to rafters, if these old Halls could speak.

Chorus 1

                     C F C Bb      
They would tell you that I'm sorry.
                        C F C Bb     
For bein' and cold and blind and weak.
                               Dm C Bb Gm   
They would tell you that it's only that I have a stubborn streak.
 Bb F       
If these walls could speak.


 F Bb C F Bb C  

Verse 3                                           

 Bb C Bb C F       
If these old fashion window panes were eyes.
   Bb F C Dm                
I guess they would have seen it all.
              F C Bb          
Each little tear in silence would fall.
            C F Bb        
And every dream that we came to seek,
    C7 F Bb C Bb 
Or followed after, if these old walls could speak.

Chorus 2

                      C F C Bb         
They would tell you that I owe you,
                    C F C             
More that I could ever pay.
  Bb Dm                             
Here's someone who really loves you,
            C Bb Gm Dm        
Don't ever go away.
        Gm F Bb F C Gm F   
That's what these walls would say.

flyinglibra51
God Bless Glen Travis Campbell

These People intro Tabs – Sheppard

 -------------------------------------------------------------------------------
                             THESE PEOPLE - Sheppard
-------------------------------------------------------------------------------
: BP97

Tuning:Standard

e|------------------------------------------------------------------------------|
B|--x--x--x---------------------------------------------------------------------|
G|--x--x--x--------3-----3--5--3--7--5---3--3-3--/8--7--5--3------------3-------|
D|--x--x--x--3--5-----5----------------------------------------3----3--5-----3--|
A|--x--x--x---------------------------------------------------------------------|
E|------------------------------------------------------------------------------|

e|---------------------------------------------------------------------------|
B|---------------------------------------------------------------------------|
G|-----3--5--3--7--5---5-5-/10--7--5--3-3------------------------------------|
D|--5------------------------------------------------------------------------|
A|---------------------------------------------------------------------------|
E|---------------------------------------------------------------------------|


************************************

| /   slide up
| \   slide down
| h   hammer-on
| p   pull-off
| ~   vibrato
| +   harmonic
| x   Mute note
| b   Bend
| pb  Pre-bend
| br  Bend release
| pbr Pre-bend release
| brb Bend release bend

************************************

These Are The Days chords – The Exies

 These Are The Days-The Exies 

Tuning: Half Step Down

VERSE

 D 
The more I talk the less I say

 B 
When the words get in the way

 G 
Loneliness is so hard

 A 
Loneliness is so hard

 D 
Ordinary, I confess

 B 
Living under house arrest

 G 
Maybe I belong here

 A A# 
Maybe I belong

PRE-CHORUS

 G F#m  
Suddenly there's beauty in

 Em D 
The way my heart is caving in

 G F#m A  
And every scar reminds me how

     A# 
I can't deny

CHORUS

     B         
These are the days that last forever

    G 
A time in my life I won't surrender

             D A A# 
For better or worse, these are the days
  B 
In my life I've loved no other

 G 
We all have pain, we all have suffered

      D A A# 
For better or worse, these are the days


I will remember


VERSE

The more I learn, the less I know
The final act of letting go
Of everything that life takes
The reasons why my heart breaks

PRE-CHORUS

Suddenly there's comfort in
The way the world comes crashing in
And every tear reminds me I'm alive
Tonight

CHORUS

These are the days that last forever
A time in my life I won't surrender
For better or worse, these are the days
In my life I've loved no other
We all have pain, we all have suffered
For better or worse, these are the days
I will remember

BRIDGE

The more I talk, the less I say
When the words get in the way
Loneliness is so hard
Loneliness is so hard

Ordinary, I confess
Living under house arrest
Maybe I belong here
Maybe I belong

CHORUS

These are the days that last forever
A time in my life I won't surrender
For better or worse, these are the days
In my life I've loved no other
We all have pain, we all have suffered
For better or worse, these are the days
I will remember
I will remember
I will remember

These Great Things chords – Lily And Madeleine

 These Great Things :L & M

Intro:  AM C AM F C AM C 
The spirit is empty down on Carson Beach 
              AM C 
Where you once sang to me
 AM C AM C      
  I hi hi hi            I hi hi hi
 AM C 
Now that I'm looking to the endless sea
        AM C 
The line that separates me
 AM C AM F C 
I hi hi hi    did not   cast into the deep

 DM F 
You say you'll do all these great things
 C G 
You think you're so strong
                     DM F C G 
But you're wrong you're wrong

       AM C 
If I wait a little while maybe all these things
 AM C 
Will come back to me
 AM C AM C      
  I hi hi hi            I hi hi hi
 AM C AM C 
Just to be your collapse  What's the point in    staying
 AM C AM F C 
Everything you were saying was only true to you

 DM F 
You say you'll do all these great things
 C G 
You think you're so strong
                     DM F C G 
But you're wrong you're wrong
 DM F 
 I thought you could do anything
            C G DM 
But I find with time I've changed my mind
                       F C G 
changed my mind


 DM F C G DM F C G 
Oh ho  ho       Oh ho  ho          Oh ho  ho       Oh ho  ho   
 DM F C 
Oh ho  ho    Ooh 

All These Dark Years Tabs by Orden Ogan

 Orden Ogan - All these dark years.
Such an amazing song,  Eldad Corem. 1\23\14

Intro:

All the open string notes are palm muted.

e|----------------------------------------------------------------------------|
B|----------------------------------------------------------------------------|
G|----------------------------------------------------------------------------|    X2
D|-----------------2------------------------------------2---------------------|
A|-----------------2---7--5-----------------------------2---7--5------------5-|
E|-0-000-0-0-23-00-0-00-00-0-5h7-00-232-0-000-0-0-23-00-0-00-00-0-5h7-00-2h3--|

e|-----------------------------------------------------------------------|
B|-----------------------------------------------------------------------|
G|-----------------------------------------------------------------------|
D|-----------------------------------------------------------------------|  X2
A|------------------7--5------------5------------------7--5------------5-|
E|-000000-0-000000-0-00-0-5h7-00-2h3--000000-0-000000-0-00-0-5h7-00-2h3--|

Then second guitar goes:

E|-2-|
A|-2-| And let it ring until the Verse starts, then it pick slides.
E|-0-|

While guitar one:

e|-------------------------------------------------------------|
B|-------------------------------------------------------------|
G|-------------------------------------------------------------|
D|-------------------------------------------------------------|
A|--10-9-7-5-5-7---10-9-7-5-5-7---10-9-7-5-5-7---10-9-7-5-5-7--|
E|-0--0-0-0-0---0-0--0-0-0-0---0-0--0-0-0-0---0-0--0-0-0-0---0-|

Verse 1:

Lost my heart on the eastern shore.. (no guitar)

All alone, here fire's dying..

   Let ring..
e|-------------|
B|-------------|
G|-------------|
D|-------------|   X2
A|-7~---5~-----|
E|---7~---5~---|

All the open E-string notes are palm muted.

I wasted half my life, But all I ever wanted was a clearer view of myself..
I broke my back with all the things that I considered, And now there's nothing left of it..

e|------------------------------------------------------------------------10-|
B|---------------------------------------------------------------------8-7---|
G|------7-----------------7-------------------7-----------------7-----7------|
D|-------5-----------------5-------------------5-----------------5---7-------|  X2
A|--------7-------2h5-------7-5-2-0-2-0---------7-----10-12-------7s9--------|
E|-0-000---3p0h2h3---0-000-------------3-0-000---0-000--0--0-000-------------|

Bridge:

All bass notes are palm muted for this part.

   And the ashes of fathers, Now cover the track
e|-------------------------------------------------|
B|-------------------------------------------------|
G|-------------------4---4-------------------4---4-|
D|-------2---2-------4---4-------2---2-------4---4-|
A|-------2---2-2-222-2-2-2-------2---2-2-222-2-2-2-|
E|-0-000-0-0-0-------------0-000-0-0-0-------------|

   In a land where fortune is borrowed
e|-------------------------------------------------|
B|-------------------------------------------------|
G|-------------------4---4-------5---5-------7---7-|
D|-------2---2-------4---4-------5---5-------7---7-|
A|-------2---2-2-222-2-2-2-3-333-3-3-3-5-555-5-5-5-|
E|-0-000-0-0-0-------------------------------------|

In these days where all luck, is just leaving the sad
                                                    In the air just thoughts full of sorrow..
e|----------------------------------------------------------------|
B|----------------------------------------------------------------|
G|-------------------4---4-------5---5-------7---7----------------|
D|-------2---2-------4---4-------5---5-------7---7--7--9--10--12--|
A|-------2---2-2-222-2-2-2-3-333-3-3-3-5-555-5-5-5--7--9--10--12--|
E|-0-000-0-0-0--------------------------------------5--7--8---10--|

Chorus:
(All open E-string notes are palm muted)

  

Still After All These Years chords – Noah And The Whale

 -------------------------------------------------------------------------------
                             STILL AFTER ALL THESE YEARS - Noah and the Whale
-------------------------------------------------------------------------------
: tunietunes

Tuning: Standard

Capo: 1st fret

     D A Bm G D 
Oh Lisa, lift up your head, light up a cigarette.
 A Bm G A 
In the morning light you're not so hot.
     D A Bm G D 
Oh Lisa, come talk to me, I wanna hear your memories,
 A Bm G A 
you know I thought of you, from time to time.


 G      
Lying with your make-up off,
 A   
I can see the girl I love
 Bm A G 
Dark and brooding, fickle and demure


                D A Bm A 
And I think, still after all these years
                D A Bm     
Oh I think, still after all these years
 A G 
something still burns.


     D A Bm G D 
Oh, Lisa, don't be shy, this is not real life,
 A Bm G A 
this moment will soon be lost in time.
 D A Bm G D 
When it's time to leave don't turn your back on me.
 A Bm G A 
This was no return, our grand farewell.


 G 
Mostly I won't think of you,
 A 
but baby if I ever do
 Bm A G 
I remember thinking with surprise.


       D A Bm A 
That still after all these years,
   D A Bm     
still after all these years 
 A G 
something still burns.

(Key-change in this Pre-Chorus)

 G 
Lying with your make-up off
 Em 
I can see the girl I love,
 C A 
Dark and brooding, fickle and demure.


                E B C#m B 
And I think, still after all these years,
       A G#m F#m    
oh, still something in me.
 E B C#m   
Still after all these years,
 B A 
something still burns.


Enjoy!

One Of These Things First Tabs by Nick Drake

 Nick Drake - Milk and Honey

TUNING: BEBEBE  - highest two strings remain while the bottom 4 are tuned down.

Intro:

E:------------------------------------|
B:------------------------------------|
E:---4-4-----5-5-----7-7-----6--5-----|  x4
B:--0-0-0---2-2-2---4-4-4---3--2------|
E:-0-------0-------0-------0--0-------|
B:------------------------------------|


Verse:

E:------------------------------------|
B:------------------------------------|
E:---4-4-----5-5-----7-7-----6--5-----|  x4
B:--0-0-0---2-2-2---4-4-4---3--2------|
E:-0-------0-------0-------0--0-------|
B:------------------------------------|

E:------------------------------------------------------------------------|
B:------------------------------------------------------------------------|
E:---0-0-----0-0-----0-0-----0-0---------3-3-----3-3-----3-3-----3-3------|
B:--5-5-5---5-5-5---5-5-5---5-5-5-------3-3-3---3-3-3---3-3-3---3-3-3-----|
E:-5-------5-------5-------5-----------3-------3-------3-------3----------|
B:------------------------------------------------------------------------|

E:------------------------------------|
B:------------------------------------|
E:---4-4-----5-5-----7-7-----6--5-----|  x2
B:--0-0-0---2-2-2---4-4-4---3--2------|
E:-0-------0-------0-------0--0-------|
B:------------------------------------|

E:------------------------------------|
B:------------------------------------|
E:---3-3-----3-3-----0-0-----0-0------|
B:--3-3-3---3-3-3---2-2-2---2-2-2-----|
E:-3-------3-------2-------2----------|
B:------------------------------------|

E:------------------------------------|
B:------------------------------------|
E:---4-4-----5-5-----7-7-----6--5-----|  x1
B:--0-0-0---2-2-2---4-4-4---3--2------|
E:-0-------0-------0-------0--0-------|
B:------------------------------------|

E:------------------------------------|
B:------------------------------------|
E:---3-3-----3-3-----0-0-----0-0------|
B:--3-3-3---3-3-3---2-2-2---2-2-2-----|
E:-3-------3-------2-------2----------|
B:------------------------------------|

E:------------------------------------|
B:------------------------------------|
E:---4-4-----5-5-----7-7-----6--5-----|  x1
B:--0-0-0---2-2-2---4-4-4---3--2------|
E:-0-------0-------0-------0--0-------|
B:------------------------------------|

Chorus:

E:--------------------------------------------------------------------------------|
B:--------------------------------------------------------------------------------|
E:---0-0-----0-0-----0-0-----0-0---------0----0----0----0----0----0----0----0-----|
B:--5-5-5---5-5-5---5-5-5---5-5-5-------2----2----2----2----2----2----2----2------|
E:-5-------5-------5-------5-----------2----5----2---------2----5----2------------|
B:----------------------------------------------------2-------------------2-------|

E:------------------------------------|
B:------------------------------------|
E:---4-4-----5-5-----7-7-----6--5-----|  x1
B:--0-0-0---2-2-2---4-4-4---3--2------|
E:-0-------0-------0-------0--0-------|
B:------------------------------------|

E:--------------------------------------------------------------------------------|
B:--------------------------------------------------------------------------------|
E:---0-0-----0-0-----0-0-----0-0---------0----0----0----0----0----0----0----0-----|
B:--5-5-5---5-5-5---5-5-5---5-5-5-------2----2----2----2----2----2----2----2------|
E:-5-------5-------5-------5-----------2----5----2---------2----5----2------------|
B:----------------------------------------------------2-------------------2-------|

E:------------------------------------|
B:------------------------------------|
E:---4-4-----5-5-----7-7-----6--5-----|  x2
B:--0-0-0---2-2-2---4-4-4---3--2------|
E:-0-------0-------0-------0--0-------|
B:------------------------------------|

Verse:

Chorus:

Interlude:

E:------------------------------------|
B:-------------------

These Are The Best Times chords – Bobby Goldsboro

 THESE ARE THE BEST TIMES        -       Bobby Goldsboro


Intro:
( Cmaj7 ) -  C  -  Fmaj7       2x


( Cmaj7 ) -  C G7 
             These are the      best times
( Cmaj7 ) -  C Fmaj7 Em7 
             The moments we         can't let slip a -       way
 Am7 Dm7 
     Life´s little game we      play
 G7                        ( Cmaj7 ) -  C Fmaj7 
     Living from day to               day
                                      (Hoeoe      hoeoe
                         ( Cmaj7 ) -  C Fmaj7 
                                      Hoeoe       hoeoe)


 Cadd9 G7 
       But once in a     lifetime
( Cmaj7 ) -  C Fmaj7 Em7 
             A minute like         this is ours to       share
       Am7 Dm7 
Re -       member these moments       well
      G7 Ebmaj7 
For      moments like these are          rare
                Fm7 B7 
As dreams and       golden      rainbows
 Ebmaj7 Fm7 B7 Em7 
         Soft as nights       when summer      wind blows      by
      Am7 Dm7 
To -       gether we laugh, we       cry
 G7                          ( Cmaj7 ) -  C Fmaj7 
     Together we learn to                fly
                                        (hi -       igh


Break:
( Cmaj7 ) -  C G7 
              Laa -      lalala laalaa
( Cmaj7 ) -  C Fmaj7 
              Laa -         laaa
 Em7  -  Am7 Dm7 G7  -
            Hoeoe       oeoe

 Ebmaj7  -  Fm7  -  B7       2x

 Em7 Am7 
     These are the       best times
 Dm7 G7 
     These are the      best times)


( Cmaj7 ) -  C G7 
             Come take my      hand
( Cmaj7 ) -  C Fmaj7 Em7 
             Together we'll         cross the timeless       sand
 Am7 Dm7 
     Chasing the endless       sun
 G7                        ( Cmaj7 ) -  C 
     Living our lives as               one
    ( G7                         ( Cmaj7 ) -  C 
          Living our lives as               one)


These are the best times
     ( G7                       ( Cmaj7 ) -  C 
          Living our lives as                one)
These are the best times
     ( G7                       ( Cmaj7 ) -  C 
          Living our lives as                one)
These are the best times
     ( G7                       ( Cmaj7 ) -  C 
          Living our lives as                one)
These are the best times
     ( G7                       ( Cmaj7 ) -  C 
          Living our lives as                one)//




 C       x32010
 G7      320031
 Fmaj7   xx3210
 Em7     022030
 Am7     x02013
 Dm7     xx0211
 G       320003
 Cmaj7   x32000
 Cadd9   x32030
 Ebmaj7  x65333
 Fm7     131111
 B7      x24242

These Are Days chords – 10000 Maniacs V3

 Transpose -4 with button at the left for original key.  Or... transpose -5 and capo at 
first fret (or leave like this to sing with baritones).

Playing the chords with a 6th is optional.   If you want to pick up the keyboard note 
(which is also used in the vocal melody), you can play that.   Or leave out to sound more 
like original guitar part.


 D C G/B C D C G G6 G D G G6 G D 
         These are the days        these are days you'll remember
 Em D C G/B Em D C 
Never before and never since, I promise, will the whole world be warm as this
     G/B D C G/B C 
And as you feel it, you'll know it's true, that you, are blessed and lucky
 D C G/B C    - / B  - / A  - / G D C G G6 G D 
It's true, that you, are touched by something, that'll grow and bloom, in you

 G G6 G D 
These are days that you'll remember
 Em D C G/B Em D C 
When May is rushing over you with desire, to be part of the miracles you see
     G/B D C G/B C 
In every hour, you'll know it's true, that you, are blessed and lucky
 D C G/B C    - / B  - / A  - / G D C G G6 G G6 G 
It's true, that you, are touched by something, that'll grow and bloom in you

 G G6 G G6 D C G /B           C 
These are days,   these are the days, you might fill with laughter, until you break
 D C G/B C D 
These days you might feel a shaft of light make its way across your face
           C G/B C D 
And when you do, then you'll know how it was meant to be, see the signs and know their meaning
        C G/B 
It's true, then you'll know how it was meant to be
  C D C G G6 G D G G6 G D G G6 G D G 
Hear the signs and know they're speaking to you, to you


Example chord fingering:
G:  3 2 0 0 3 3  (in key of G)
G6: 3 2 0 0 3 0
D:  x x 0 2 3 2  (in key of D, if transposed -5 and capo 1)
D6: x x 0 4 3 2

These Four Walls chords – Little Mix V3

 These Four walls –Little Mix
Capo: 4th Fret

 Em
I feel so numb
 G Am C
Staring at the shower wall
 Em
It's begun,
 G Am C
The feeling that the end has come
 Em D
And now the water's cold
 G Em
I tried to eat today
 G Em C
But the lump in my throat got in the way
 Em G Am C
In this time I've lost all sense of pride
 Em D
I've called a hundred times
       Em C
If I hear your voice I'll be fine

 G C
And I, I can't come alive
 G C
I want the room to take me under
 G C
'Cause I can't help but wonder
 G D Em
What if I had one more night for goodbye?
   Em G D C
If you're not here to turn the lights off, I can't sleep
 C G
These four walls and me

 D C Am C D Em
I lay in bed
 G Am C
Can't seem to leave your side
 Em
Your pillow's wet
 G Am C
From all these tears I've cried
 Em D
I won't say goodbye
 G Em
I tried to smile today
 G Em C
Then I realized there's no point anyway

 Em G Am C
In this time I've lost all sense of pride
 Em D
I've called a thousand times
        Em C
If I hear your voice I'll be fine
 G C
And I, I can't come alive
 G C
I want the room to take me under
 G C
'Cause I can't help but wonder
 G D Em `
What if I had one more night for goodbye?
 Em G D C
If you're not here to turn the lights off, I can't sleep
 C G
These four walls and me

 D C Am C D C Am D
Oh oh oh
 G C
And I, I can't come alive
 G C
I want the room to take me under
 G C
'Cause I can't help but wonder
 G D Em
What if I had one more night for goodbye?
 Em G D C
If you're not here to turn the lights off, I can't sleep
 C G
These four walls and me

 D C Am C G

These Four Walls chords – Little Mix V2

 THESE FOUR WALLS – LITTLE MIX

Hey there, this is my first tab, I hope this is okay. If you have some corrections
or you find some mistakes, please tell me! :) xx

 Bb  1-1-3-3-3-1
 Gm  3-5-5-3-3-3
 F   1-3-3-2-1-1
 Eb  6-6-8-8-6-6
 Cm  x-3-5-5-4-3

 Bb Gm Bb
 I feel so numb
   Gm F Gm Eb Bb F
Staring at the shower foam
 Bb Gm F Gm Eb
 It’s begun, the feeling that the end has come
     Bb F
And now the water’s cold
 Bb
 I tried to eat today
                 F Gm Eb Bb F
But the lump in my throat got in the way
 Bb Gm F Gm Eb
 In this time, I’ve lost all sense of pride
       Bb F
I’ve called a hundred times
       Gm F Eb
If I hear your voice I’ll be fine
      Bb Eb F
And I, I can’t come alive
( F )          Gm
I want the room to take me under
        F Eb
‘Cause I can’t help but wonder
         Bb Eb F Gm
What if I had one more night for goodbye?
                 F  (let ring)                          Eb
But you’re not here to turn the lights off, I can’t sleep
                    Bb Gm
These four walls and me
 Bb
 I lay in bed
        Gm F Gm Eb
Can’t seem to leave your side
 Bb Gm F Gm Eb
 Your pillow’s wet from all these tears I’ve cried

 Bb F
I won’t say goodbye
 Bb
 I tried to smile today
          F Gm Eb Bb F
Then I realized it’s no point anyway
 Bb Gm F Gm Eb
 In this time, I’ve lost all sense of pride
        Bb F
I’ve called a thousand times
       Gm F Eb
If I hear your voice I’ll be fine
     Bb Eb F
And I, I can’t come alive
( F )          Gm
I want the room to take me under
        F Eb
‘Cause I can’t help but wonder
         Bb Eb F Gm
What if I had one more night for goodbye?
                 F  (let ring)                          Eb
But you’re not here to turn the lights off, I can’t sleep
                   Cm
These four walls and me

 Bb Gm Cm Eb F Bb Eb F
And I, I can’t come alive
( F )          Gm
I want the room to take me under
        F Eb
‘Cause I can’t help but wonder
         Bb Eb F Gm
What if I had one more night for goodbye?
                  F Eb
But you’re not here to turn the lights off, I can’t sleep

These four walls and me

These Four Walls chords – Little Mix

 Capo 3 :)

  Em
I feel so numb
 G Am C
Staring at the shower wall

 Em
It's begun,
 G Am C
The feeling that the end has come
 Em D
And now the water's cold

 G Em
I tried to eat today
 G Em C
But the lump in my throat got in the way
 Em G Am C
In this time I've lost all sense of pride
 Em D
I've called a hundred times
       Em C
If I hear your voice I'll be fine

 G C
And I, I can't come alive
 G C
I want the room to take me under
 G C
'Cause I can't help but wonder
 G D Em
What if I had one more night for goodbye?
   Em G D C
If you're not here to turn the lights off, I can't sleep
 C G
These four walls and me

 Em
I lay in bed
 G Am C
Can't seem to leave your side
 Em
Your pillow's wet
 G Am C
From all these tears I've cried
 Em D
I won't say goodbye

 G
I tried to smile today
 G Em C
Then I realized there's no point anyway

 Em G Am C
In this time I've lost all sense of pride
 Em D
I've called a thousand times
 Em C
If I hear your voice I'll be fine

 G C
And I, I can't come alive
 G C
I want the room to take me under
 G C
'Cause I can't help but wonder
 G D Em
What if I had one more night for goodbye?
   Em G D C
If you're not here to turn the lights off, I can't sleep
 C G
These four walls and me


Oh Oh

 G C
And I, I can't come alive
 G C
I want the room to take me under
 G C
'Cause I can't help but wonder
 G D Em
What if I had one more night for goodbye?
   Em G D C
If you're not here to turn the lights off, I can't sleep
 C G
These four walls and me
~~~~~
let me know if anythings incorrect:)

When These Mountains Were The Seashore solo Tabs by Hawksley Workman

 -------------------------------------------------------------------------------
WHEN THE MOUNTAINS WERE THE SEASHORE - Hawksley Workman
-------------------------------------------------------------------------------
:Dylan
Vhabyeryemyennahyah_corbe@hotmail.com

Tuning:Standard

this can be transposed to make it easier to play but this is the way I like to do 
it also this solo is on piano and is probably missing harmonies at parts

Piano solo
e|-------------------------------3--1212-1010------0---------|
B|3h5p3-5-----------3h5-3h5--3---0--1313-1212-8h10--------0--|
G|--------4p2p0-----5---5----0----------------------5h7p5----|
D|-------------2p0-------------------------------------------|
A|-----------------------------------------------------------|
E|-----------------------------------------------------------|

e|3---5h7p5-3h5---10h12-12---10--753-----------3---3h5p3-0---7-7-3-5--|
B|--0--------------------------------5p3---3h5---5-----------3-3-3-3--|
G|--------------------------------------------------------------------|
D|--------------------------------------------------------------------|
A|--------------------------------------------------------------------|
E|--------------------------------------------------------------------|

************************************

| /   slide up
| \   slide down
| h   hammer-on
| p   pull-off
| ~   vibrato
| +   harmonic
| x   Mute note
| b   Bend
| pb  Pre-bend
| br  Bend release
| pbr Pre-bend release
| brb Bend release bend

************************************

Language Barriers – These Dreams chords

 Capo 2 =  Am  -  F  -  C  -  G 

(Verse 1)
I wonder sometimes how we got to be this far,
We've grown so much but did we grow too much to be part,
This daily life has got us down around of our hearts,
I know it's easy to forget how this thing got its whole start,

(Chorus)
These dreams, there made out of real things,
Put them all together and you may just have somethin to believe in,
Without it all, were just alone in this haul,
Together, weather we make it, we made it you know we did after all

(Verse 2)
Its easy to see, believe theirs something on the side of those dreams,
But how'd it be if we would get there having nothing,
This life you live, the people that share your hopes and everythings,
They'll be there and they'll weather the ride no matter what comes, out of

(Repeat Chorus)

(Verse 3)
Lets get together, and be together no matter in what we do tonight,
Lets be the reason we love to ride along on this wave,
We dont know how to get where we know we want to be then,
But this time, were loving to be apart of this livin

(Repeat Chorus)