Tag: things

The Things We Used To Share chords by Thomas Sanders

[Verse]

                 C
You can have the toaster
          Em
And the PC
          Am                D
Or even my Timothy Green DVD
                     C
I'll let you have the couch
          Em
And the TV
                Am                           D
Hang on to that jacket that you bought for me

[Chorus]

C                 E7
I don't really care
Am                                  F
You can keep the things we used to share
C                E7           Am     F
But what did you do with my heart?
C            E7           Am     F
What did you do with my heart?

[Verse]

C
No more fireworks
Em
No more compass
Am                               D
You didn’t leave a single butterfly in my stomach
            C
You took my spyglass--
           Em
No knowin’ what lies ahead
         Am
‘Took my warmth at night,
           D
But left a dent in my bed

[Chorus]

C                 E7
I don't really care
Am                                  F
You can keep the things we used to share
C                E7           Am     F
But what did you do with my heart?
C            E7           Am     F
What did you do with my heart?

[Verse]

                         C
You've stripped me of my pride--
       Em
That’s for the best,
           Am                    D
But you've also deprived me of a full night's rest
           C
So no more dreams
      Em
Where we pull through
      Am
And I can't collect my thoughts
D
‘Cause they're still with you

[Chorus]

C                 E7
I don't really care
Am                                  F
You can keep the things we used to share
C                E7           Am     F
But what did you do with my heart?
C            E7           Am     F
What did you do with my heart?

[Instrumental]

C  E7  Am  F  x4

[Bridge]

                   C
I wouldn't take it back
                   E7
Even though I feel sore
                Am
I meant it when I said
               F
What's mine is yours
      C
But I need to know
         E7
Now that we're apart
Am           F
What did you do
C
I need to know
         E7
Now that we're apart
Am           F                C  E7  Am  F
What did you do with my heart?
C            E7         Am     F
What did you do with my heart?   x3

The End Of All Things Tabs – Panic! At The Disco Vsion 3

 : jcameronp
Tuning: standard, capo on 1 (notes relative to capo, so fret 7 with capo on 1 is actually played at fret 8)


Intro:

(make sure to emphasize the high e of every chord)

e|-0~-3-5-7~-2~-0~-3-5--10~-5~-3~-3-5-7~-2~-0~-3-5-10-5-3~-------------------|
B|-0~-----0~-3~-0~------7~--x~-0~-----0~-3~-0~----------0~-------------------|
G|-0~-----0~-2~-0~------7~--4~-0~-----0~-2~-0~----------0~-------------------|
D|-2~-----5~-0~-2~------7~--4~-2~-----5~-0~-2~----------2~-------------------|
A|-3~-----7~----3~------9~--5~-3~-----7~----3~----------3~-------------------|
E|---------------------------------------------------------------------------|

Verse:

Whether near or far...

e|-3-5-7~-2~-0~-3-5-10~-5~-3~-3-5-7~-2~-3-5-7~-7-7-5~------------------------|
B|-----0~-3~-0~-----7~--x~-0~-----0~-3~-----0~-----x~------------------------|
G|-----0~-2~-0~-----7~--4~-0~-----0~-2~-----0~-----4~------------------------|
D|-----5~-0~-2~-----7~--4~-2~-----5~-0~-----5~-----4~------------------------|
A|-----7~----3~-----9~--5~-3~-----7~--------7~-----5~------------------------|
E|---------------------------------------------------------------------------|

Prechorus:

Lay us down...

e|-3-----5-------7---------5-5-7---------5-----------------------------------|
B|-1-----3-------8---------3-3-5---------3-----------------------------------|
G|-0-----4-----------------4-4-4---------4-----------------------------------|
D|---------------------------------------------------------------------------|
A|---------------------------------------------------------------------------|
E|---0-0---0-0-0---0-0-0-0-------0-0-0-0---0-0-0-0---------------------------|

e|-3-----5-------7---------5-3-7---------5-----------------------------------|
B|-1-----3-------8---------3-1-5---------3-----------------------------------|
G|-0-----4-----------------4-0-4---------4-----------------------------------|
D|---------------------------------------------------------------------------|
A|---------------------------------------------------------------------------|
E|---0-0---0-0-0---0-0-0-0-------0-0-0-0---0-0-0-0---------------------------|

Guitar 2 (optional along with piano)

e|-16-18-20-18-18-20-18--16-18-20-18-16-23-----------------------------------|
B|---------------------------------------------------------------------------|
G|---------------------------------------------------------------------------|
D|---------------------------------------------------------------------------|
A|---------------------------------------------------------------------------|
E|---------------------------------------------------------------------------|

Chorus:

e|-23-22-18-23-22-18-23-22-18-20---------------------------------------------|
B|---------------------------------------------------------------------------|
G|---------------------------------------------------------------------------|
D|---------------------------------------------------------------------------|
A|---------------------------------------------------------------------------|
E|---------------------------------------------------------------------------|

or if your guitar doesn't have that many frets you can play

e|-11-10----11-10----11-10---------------------------------------------------|
B|-------11-------11-------11-13---------------------------------------------|
G|---------------------------------------------------------------------------|
D|---------------------------------------------------------------------------|
A|---------------------------------------------------------------------------|
E|---------------------------------------------------------------------------|

e|---------------------------------------------------------------------------|
B|---------------------------------------------------------------------------|
G|-0-2-4---------------------------------------------------------------------|
D|-----5-------4-------------------------------------------------------

Little Things chords – Glen Campbell

 Little Things
Glen Campbell
Words and Music by Bobby Goldsboro:

Intro Tab riff
E______________________________________________________
B______________________________________________E Chord_
G_____0_________0__________0_________0___________x_____
D___2_____0_1_2_____0_1_2______0_1_2______0_1____x_____
A_______2_________2__________2__________2________x_____
E______________________________________________________

Verse 1

         E C# F# B 
Little things that you do make me glad I'm in love with you
         E C# F# B 
Little things that you say make me glad that I feel this way
             A7 E 
The way you smile, the way you hold my hand
              A7 B 
And when I'm down you always understand

Verse 2


(Riff played over this line)

You know I love those
         E C# F# B 
Little things in my ear that you say when there's no one near
         E C# F# B 
Little things that you do let me know that your love is true
         A7 E 
When we walk, you like to hold my hand
             A7 B 
And when we talk you tell me I'm your man

Verse 3

(riff played over this line)

You know I love those
         G Em G Em 
Little things that I hear, the little things you whisper in my ear
   G D 
I know there ain't nobody else like you
              G D B 
No one could do the little things you do-oo

Verse 4

(Riff)

        E C# F# B 
Little things that you do make me glad I'm in love with you
        E C# F# B 
Little things that you say make me glad that I feel this way
         A7 E 
When we walk, you like to hold my hand
             A7 B 
And when we talk you tell me I'm your man

Verse 5

(riff played over this line)

You know I love those
        G Em G Em              
Little things that I hear, the little things you whisper in my ear
    G D 
I know there ain't nobody else like you
              G D B   (Riff outro)
No one could do the little things you do-oo

flyinglibra51
God Bless Glen Travis Campbell 

Black Heart Tabs – The Damned Things

 Intro:
e|--------------------------------------------------------------------------------------------------|
B|--------------------------------------------------------------------------------------------------|
G|---------------------------------------------------------------------------2h4-------2---4-2-4-4--|
D|--2h4-2h4-2---2h4-x-4-4---4-6h7-4---4-6464-2-4-4-4-6h7-4---4-6-6-4-2-4-4-4-----4-2-4---4---2-4-4--|
A|------------4-----x-4-4-----------7--------2-4-4---------7---------2-4-4-------------------0-2-2--|
E|------------------x-2-2--------------------0-2-2-------------------0-2-2--------------------------|

*these are half note triplets  intro ends, begin verse
e|----------------------------|---------------------------------------------------------------------------|
B|----7-5---------------------|---------------------------------------------------------------------------|
G|--6-----6-5-4---------------|---------------------------------------------------------------------------|
D|--------------7-------------|------2-4-4---------------------2h4---------2-4-4---------------------2h4--|
A|----------------------------|------2-4-4---------------------2h4---------2-4-4---------------------2h4--|
E|----------------------------|--5-4-0-2-2---------------5--4--0h2-----5-4-0-2-2---------------5--4--0h2--|
                                 * * *                                 * * *
e|--------------------------------------------------------------------------------------------|
B|----------7--7-7-7-7-9-7---7--7-7-7-7-9-7---------------------------------------------------|
G|--------4-7--7-7-7-7-9-7-4-7--7-7-7-7-9-7---------------------------------------------------|
D|--------4-9--9-9-9-9-9-9-4-9--9-9-9-9-9-9--4-4---------------------2h4----------------------|
A|--------2----------------2-----------------4-4---------------------2h4----------------------|
E|--5-4-0------------------------------------2-2---------------5--4--0h2---------------5-4-0--|
    * * *
Prechorus (Suddenly not swing 8ths)         Chorus
e|---------------------------------------| |-------------------------------------|
B|---------------------------------------| |-------------------------------------|
G|---------------------------------------| |-------4x4--4-4----------------------|
D|--6664/6664/66666664/6664/6664/6666666-| |--7--7-4x4--4-4-2h4442h4442h4442h444-|  X3
A|--6664/6664/66666664/6664/6664/6666666-| |--7--7-2x2--2-2-2h4442h4442h4442h444-|
E|--4442/4442/44444442/4442/4442/4444444-| |--5--5----------0h2220h2220h2220h222-|
 
after 3rd time, do:
e|-------------------------|
B|-------------------------|
G|--4-4--------------------|   <-- After this part, repeat intro exactly
D|--4-4---------------2-2--|
A|--2-2-4h5-5-5-----5-2-2--|
E|--------------2-5---0-0--|

then repeat verse in full 
*except, when playing the Bm-Emaj 2nd inversion-root part, after the first 5 of the 2nd run, play:
e|-7-5---5h7--|   then continue
B|-----7------|

then prechorus-chorus again but chorus ends differently- lead-in to solo
e|--------------------------------|
B|--------------------------------|
G|--4-4---------------------------|
D|--4-4---------------2-2---------|
A|--2-2-4h5-5-5-----5-2-2-2-2-2h4-|
E|--------------2-5---0-0---------|

Solo:
gtr 2 plays this during 1st part
e|----------------------| |--------------------------|    |-------------------------------------|
B|----------------------| |--------------------------|    |-------------------------------------|
G|----------------------| |---4~-------------------4-| X2 |--6--6-6--6-6------6--6-6--6-6-x2-x4-| X2
D|--4------2-4------2---| |---4~--4---2-4-4--2---2-4-|    |--6--6-6--6-6-4-2--6--6-6--6-6-x2-x4-|
A|--4------2-4------2---| |---2~--4---2-4-4--2---2-2-|    |--4--4-4--4-4-4-2--4--4-4--4-4-x0-x2-|
E|--2------0-2------0---| |-------2---0-2-2--0---0---|    |--------------2-0--------------------|


Gtr 1(in between hits on the first part):
e|------------------------------------------| |--------------------------

Small Things Live Tabs – Ben Howard

 -------------------------------------------------------------------------------
                             SMALL THINGs - Ben Howard
-------------------------------------------------------------------------------
: Montana


Tuning:CGA#A#FC

 Intro/Verse:
e|---------------------------------+12-----------------------------------+7------|
B|-------b7--5--0---0h2------------+12---------b7--5--0--0h2-------------+7------|
G|--------------------------------(+12)---------------------------------(+7)-----|
D|-------------------------------------------------------------------------------|
A|-----------------------------9-----------------------------------7--6----------|
E|---7--------------3-------10---9---------7-------------3------8----------------| (x6)

   Chorus
    note: the fourth time through he just ends on 7th fret and pauses before second vets
e|--------------------------------------------|
B|----------------0-----0-----0--- --0--------|
G|------0----0--------------------------------|
D|--------------------------------------------|
A|--------------------------------------------|
E|---7-----7----10---10----9-----9---------7--| (x4)

 2nd Verse:
e|---------------------------------+12-----------------------------------+7------|
B|-------b7--5--0---0h2------------+12---------b7--5--0--0h2-------------+7------|
G|--------------------------------(+12)---------------------------------(+7)-----|
D|-------------------------------------------------------------------------------|
A|-----------------------------9-----------------------------------7--6----------|
E|---7--------------3-------10---9---------7-------------3------8----------------| (x4)

 (Chorus)
    song starts to speed up here
    pinky finger laying across the 12th and 19th frets lightly to create harmonic sound
note: my X's mean slap ..because i don't know how else to tab that..oops..sorry if its confusing

   has the world                                gone mad
  all          these                small things                they gather round       they gather
e|---------------X-----12----X--------------X-----12----X-------------X-----19----X------------X--|
B|---------------X-------12--X--------------X--------12-X-------------X-------19--X------------X--|
G|-----------12--X-----------X----------12--X-----------X---------19--X-----------X---------19-X--|
D|--------12-----X-----------X--------12----X-----------X-------19----X-----------X-------19---X--|
A|---12-12-------X--12-------X---12-12------X--12-------X--14-14------X--14-------X--14-14-----X--|
E|---------------X-----------X--------------X-----------X-------------X-----------X------------X--|
   or is it me
   round          me
e|-----19-----X-------------X-----19-----X-------------X-----19-----X-|
B|--------19--X-------------X--------19--X-------------X--------19--X-|
G|------------X----------19-X------------X---------19--X------------X-|
D|------------X--------19---x------------X-------19----X------------X-|
A|--14--------X--13-13------X--13--------X--13-13------X--13--------X-|
E|------------X-------------X------------X-------------X------------X-|  (x4)

    quick transition:
e|------17---14---12-------------|
B|-------------------------------|
G|-------------------------------|
D|-------------------------------|
A|---13----13---13---------------|
E|-------------------------------|
   and i can't see my love
e|---------X--------------X---------X-----------X--------------X--------------------|
B|---------X--------------X---------X-----------X--------------X--------------------|
G|---------X--------------X---------X-----------X--------------X--------------------|
D|------12-X-12-------12--X------12-X-12-----12-X--12-------12-X-12--------12-------|
A|---------X--------------X---------X-----------X--------------X--------------------|
E|--7-7----X------7-7-----X---7-7---X-----7-7---X------10-10---X-------10-10--------|

e|----------X-------------X------------X------------X-----------X---

Good Things intro Tabs – A Day To Remember

 -------------------------------------------------------------------------------
                             Good Things - A Day To Remember
-------------------------------------------------------------------------------
: Hewitt
 hewitt_pd

Tuning: C

D|-x-x-----x-x-----x-x-x-x---------------------------------------------------------------------|
A|-x-x-----x-x-----x-x-x-x---------------------------------------------------------------------|
F|-x-x-----x-x-----x-x-x-x---------------------------------------------------------------------|
C|-x-x-6-6-x-x-8-8-x-x-x-x-5-----6-----10-----8------------------------------------------------|
G|-x-x-6-6-x-x-8-8-x-x-x-x-5-x16-6-x16-10-x16-8-x16--------------------------------------------|
C|-x-x-6-6-x-x-8-8-x-x-x-x-5-----6-----10-----8------------------------------------------------|


I'll post more as I figure the rest of the lead/rhythm out, no body posted anything on this tab so if there
are changes, or a better version email me.

************

| /   slide up
| \   slide down
| h   hammer-on
| p   pull-off
| ~   vibrato
| +   harmonic
| x   Mute note
| b   Bend
| pb  Pre-bend
| br  Bend release
| pbr Pre-bend release
| brb Bend release bend

************************************

He Says The Same Things To Me chords – Skeeter Davis

 He Says The Same Things To Me:Skeeter Davis.
#8 Country, #15 A.C. and # 47 on BB Hot 100
on RCA Records in 1964.

INTRO:  B E 

#1.
 B E A 
Shall I tell you what he said to you when he 
 E E7 
kissed you last night?
 E B Gbm A 
I could tell it sigh for sigh, and  here's the 
                        E 
reason why..(whoa-whoa-whoa.)

CHORUS:
 E B 
He says the same things to me..(doo-doo-doo)
 A E 
he says the same things to me..(bom.)

#2.
     B E A 
And shall I tell you what he said to you as he 
 E 
held you so tight?
        B A 
Let me tell you from the start..I know it now 
                      E 
by heart..(whoa-whoa-whoa.)

CHORUS:
 E B 
He says the same things to me..(doo-doo-doo)
 A E E7 
he says the same things to me..(la-la-aaaahh.)


BRIDGE: (Bridge lyrics are spoken over Bridge.)
       A B E A Am 
But I know how it must hurt you, to find his love 
 A D 
isn't real.
     B E Gb Gbm B 
And if your heart is breaking, think how I must feel.

#3.
            E A 
And did he tell you, there's no other girl..that 
     E E7 
his only love is you?
       B A 
If he did, there's no surprise, that's just the way 
                     E 
he lies..(whoa-whoa-whoa.)

OUTRO:
 E B 
He says the same things to me..
 A E Dbm A E 
he says the same things to me..(Fade.)



A sixties smash from Kraziekhat.

Little Things Tabs – Baroness

 -------------------------------------------------------------------------------
                             Little Things - Baroness
-------------------------------------------------------------------------------
: smygan
 smygan

Tuning: D DGCFAD 

Not 100% complete, please edit or submit corrections/additions

Tabbed from watching these videos



next one looks like guitar is tuned into Drop D



 Riff A                                                            
|----3-3-----2-2---------------------------3-3-----2-2-----------------------|
|--------------------3--------0-1p0------------------------3-----0-1-0-------|
|-------------------------0-2-------2p0----------------------0-2-------2---2-|
|-2-------2-------2---------------------2-------2-------2--------------------|
|----------------------------------------------------------------------------|
|----------------------------------------------------------------------------|

Riff A 6x before Verse



Riff B                      (repeat 3x)
|--------------------------------------|-------------------------------------|
|--------------------------------------|-------------------------------------|
|--------0-----------------------------|---------0---------------------------|
|------2------2---------0-----4----5---|------2-------2---------4h5-4--------|
|----2----------2-----5-----5----------|----2-----------2-----5--------------|
|-0---------------0-3-----3------------|-0----------------0-3----------------|

Riff B 3x during Verse

Cry your eyes out               A lesson left unlearned
I wish I was airborne           Then I could watch it turn
They’ve taken everything Hung us out to dry They’ve taken every thing Now you're...


Pre-Chorus
|----------------------------------------------------------------------------|
|-12---------10----------13-----12---------------12------10------13----------|
|-12-(8x)-----9-(8x)------9-(6x)-9---13----------12-(4x)--9-(4x)-12-(8x)-----|
|------------------------------------14-(8x)---------------------------------|
|----------------------------------------------------------------------------|
|----------------------------------------------------------------------------|

Playing                   enemy                   This is thought..... control



CHORUS

|-------------------5-7----------------------------------0---------0--0------------------|
|-------7-8-------5----------7--8-7-----5h7p5--------0h3-------3h4----0------------------|
|-----9---------7----------9------------------7-----------------------0------------------|
|---9---------7----------9------------7------------0---------0--------2------------------|
|-7-------------------------------- 5------------2---------2----------2------------------|
|---------------------------------------------------------------------0------------------|


|-----------------------------------0-0--0-------8-7-----5h7p5--------------------0------|
|-------8-7------5h7p5----------7-8-7-8-10-----8-------5-------8-----7h8p7--------0------|
|-----9----------------7--9-7-9-0-0----------9---------------------9-------9p7h9--0------|
|---9----------7----------0-0-0------------9---------7-----------9----------------x------|
|-7----------5--------------------------------------------------------------------7------|
|---------------------------------------------------------------------------------0------|

You’re a greasy little thing
You’ll scream before you sing
And you make a lot of noise
You lied about everything
You greasy little thing



|-----------------------------------------------------------------------------------------|
|-13----------13----------13----13----------13----------13----13----------13--------------|
|-----16----------16----------------16----------16----------------16----------16----------|
|---------14----------14----------------14----------14----------------14---------

Lesser Things chords – Barcelona

 Welp, first go at this.
***PLEASE!!!!! I AM OPEN TO ANY FIXES!!!!!! JUST LET ME KNOW. I'M TRYING TO MAKE 
THIS AS ACCURATE AS POSSIBLE FOR A FRIEND***


 G Cm 
You look good, but you don't look great,

          F Bb F 
She's got you saying things on tape,

        Gm Cm 
You wouldn't tell your best of friends,

        F Bb F 
You think this cycle never ends.

     Eb D 
Until you are old,

       Gm Bb F 
It's sad, just how old you are.


           Eb Bb F 
If you make it out alright,

            Gm F Eb 
If you make it up for air,

             F Gm 
I promise you, I won't go.

               F Eb 
(I won't leave before)

                  Bb F 
Before the sun gets to rise,

       Gm F Eb 
I'll ask this one more time,


              Bb D 
Will you have me in spite of her?


 Gm  |  Eb  |  F#m  |  G Gm C 
She has told you what she'd bring

              F Bb F 
You're entertained by lesser things,

                       Gm         
You've got to step it up a bit, step it up a bit more,

      C 
Until you're sure

                                  F 
There's nothing left inside


To hurt this pretty mind,

              Bb Am 
Because pretty eyes will see right through you



 Eb D 
She'll find out,

                   Gm 
She'll break down,

             F 
Stop this now




           Eb Bb F 
If you make it out alright,

           Gm F Eb 
If you make it up for air,

                F Gm 
I promise you, I won't go.

                F Eb 
(I won't leave before)

                  Bb F 
Before the sun gets to rise,

      Gm F Eb 
I'll ask this one more time,

            Bb D 
Will you have me in spite of her?


 Eb  |  Bb  |  Eb  |  Bb  |  Eb  |  Bb  |  F Eb Bb 
You're barely breathing,

             Eb Bb 
You're barely breathing,

             Eb Bb F 
You're barely breathing, tonight. [X4]


            Eb Bb F 
If you make it out alright,

            Gm F Eb 
If you make it up for air,

                 F Gm 
I promise you, I won't go.

                F Eb 
(I wont leave before)

                   Bb F 
Before the sun gets to rise,

      Gm F Eb 
I'll ask this one more time,

               Bb Gm F 
Will you have me, will you have me?


             Eb Bb F 
If you make it out alright,

            Gm F Eb 
If you make it up for air,

                F Gm 
I promise you, I won't go.

                F Eb 
(I won't leave before)

                  Bb <sp

Things You Already Know chords – Ween

 VERSE:
 Bm 
Grab that wheel
 Bm E 
And I'll sail you 'round the world in my yacht
 Cm F# 
Oh I've got it girl
 B A#m G#m F#m C#m F# B 
I can promise you the moon and stars, if you just give me your heart.

VERSE 2:
 Bm 
See there,
 Bm E 
Over there, just back beyond the changing room
 Cm F# 
Yeah those two
 B A#m G#m F#m C#m F# B 
Think they got it made, like I do, aren't they jealous of you.

CHORUS:
 Em B F#m E 
And don't bother to question, the thing you already know...
                 B 
Like I love you so!

VERSE 3:
Sundown,
And the maids got their fists up in the air
Oh they're everywhere
I'll show you how to diffuse the bomb, if you just give me your heart.

VERSE 4:
What's that?
You say you had some feelings hid away.
I can handle this today.
I may be the man, you are mine, so just give me your arm.

CHORUS:
And don't bother to question, the thing you already know...
Like I love you so


VERSE 5:
Screw you!
If you want to be with that dude in the grass skirt
Oh feeling won't be hurt
Your still deep beneath the dirt, guess I won't have your heart.

 B A#m G#m F#m C#m F# B 
Could've  promised you the moon and stars, if you just give me your heart.

3 Things chords – Jason Mraz

 G C D G 
There are three things I do when my life falls apart
        G C D G 
Number one I cry my eyes out and I dry up my heart
 G C D Em 
Not until I do this will my new life start 
           G C D G      
So thats the first thing that I do when my life falls apart. 

 G C D G G C D G G C D G 
Oh the second thing I do is I close both of my eyes
     G C D G 
And sing my thank yous to each and every moment of my life.
   G C D Em 
I go where I know the love is and let it feel my up inside
       G C D G 
Gathering new strength from sorrow, I'm glad to be alive.

 G C D G C 
Things are looking up
                                    G 
I know above the clouds the sun is shining
                    C 
Things are looking up
                                  Em D 
I know above the dark the sun is rising on
                   G 
just three little things

 G C D G 
oh oh oh oh
 G C D G 
oh oh oh oh (three little things)
 G C D Em 
oh oh oh oh
 G C D G 
oh oh oh oh

          G 
Yeah the third thing that I do now when my world caves in,
      G 
is I pause I take a breath and bow and I let that chapter end. 
   G C D Em 
I design my future bright not by where my life has been. 
     G C D 
And I try, try, try, try, try again. 
     G C D 
Yes I try, try, try, try, try again.

                    C 
Things are looking up
                                   G 
I know beyond the dark the sun is rising
                    C 
Things are looking up
                                    Em D 
I know above the clouds the sun is shining on
                    G 
Things are looking up
 C Em D 
Love is still the answer I am relying on (Three little things)

 G C D G 
oh oh oh oh
 G C D G 
oh oh oh oh
 G C D Em 
oh oh oh oh
 G C D G 
oh oh oh oh

Tabbed from Taylor NAMM show 2014 http://www.youtube.com/watch?v=kWs28KG4jt0

These Great Things chords – Lily And Madeleine

 These Great Things :L & M

Intro:  AM C AM F C AM C 
The spirit is empty down on Carson Beach 
              AM C 
Where you once sang to me
 AM C AM C      
  I hi hi hi            I hi hi hi
 AM C 
Now that I'm looking to the endless sea
        AM C 
The line that separates me
 AM C AM F C 
I hi hi hi    did not   cast into the deep

 DM F 
You say you'll do all these great things
 C G 
You think you're so strong
                     DM F C G 
But you're wrong you're wrong

       AM C 
If I wait a little while maybe all these things
 AM C 
Will come back to me
 AM C AM C      
  I hi hi hi            I hi hi hi
 AM C AM C 
Just to be your collapse  What's the point in    staying
 AM C AM F C 
Everything you were saying was only true to you

 DM F 
You say you'll do all these great things
 C G 
You think you're so strong
                     DM F C G 
But you're wrong you're wrong
 DM F 
 I thought you could do anything
            C G DM 
But I find with time I've changed my mind
                       F C G 
changed my mind


 DM F C G DM F C G 
Oh ho  ho       Oh ho  ho          Oh ho  ho       Oh ho  ho   
 DM F C 
Oh ho  ho    Ooh 

Things Goin On chords – Lynyrd Skynyrd

 "Things Goin' On" - Heres the chords, easy peasy. Please rate and check out some of my 
other chord lists! -Cloud9

Intro:  E B E A E    (same as verses throughout)

          E 
Have you ever lived down in the ghetto?
                                   B 
 Have you ever felt the cold wind blow?
           E 
 If you don't know what I mean,
             A 
 Won't you stand up and scream?
                  E B E 
 'Cause there's things goin' on that you don't know.

Instrumental Break -   E B E A E  (A couple times - depends on version)

            E 
 Too many lives they've spent across the ocean.
                                     B 
 Too much money been spent upon the moon.
           E 
 Well, until they make it right
               A 
 I hope they never sleep at night
              E B 
 They better make some changes
            E 
 And do it soon.

Instrumental Break -   E B E A E  (a couple times - depends on version)

                E 
 They're goin ruin the air we breathe

 Lord have mercy.
                                    B 
 They're gonna ruin us all, by and by.
                  E 
 I'm telling you all beware
          A 
 I don't think they really care
               E 
 I think they just sit up there
 And just get high.

Instrumental Break -   E B E A E  (a couple times - depends on version)

Repeat Verse 1

Precious Things chords – Jonathan Seet

 Intro:  C Em Am A Am C Em G F A C Em 
It's just too hard to hear you say
               Am 
The world is such a better place
     D C G 
Without you here, I need you here
            C Am 
It's just too hard


 Am C Em Am C G Am F Am E C Em 
The devil cries when angels fall
             Am 
Because you know he knew them all
               C G 
And heaven's loss is not hell's gain
            F 
The devil cries


 Em F Am C Em A F#m C G Am G D Am 
And even precious things get lost
             D Am 
And even precious things get lost
               D Am 
You put them down and someone's taken off
         C 
With them


 Em Am F#m C G Am F Am C Em 
So give me hope any way you can
             Am A Am 
I need to know that there's a plan
              C G 
Where we can be, together be
             F 
So give me hope


 Am F Am C Bm D 
So give me hope
          F Am 
Give me hope... 
              D Bm D 
You give me hope...
          F 
Give me hope...

http://www.seet.ca/

The Little Things chords – Chase Rice

 Little Things
Chase Rice
Capo II

 C G                                 
Its the roses just because, yeah just because its tuesday
         C G                                            
And its letting her drive my truck after what she did to the tailgate
 Cadd9 G                                                 
And its holding back her hair after one too many drinks
     C D                                                   
Yeah its the little things oh its the little things

CHORUS:
    Cadd9 G                                                            
No she doesnt need a four carat diamond ring
 Cadd9 Em D                                                        
Or a big house to come home to
  Cadd9 G                                                            
No she doesnt need a hollywood movie scene 
       Em Cadd9 D                                                      
or a sunset everyday in malibu
        Cadd9 D G                                                      
No all she needs       are the little things


 C G                                             
And its watching that damn bachelor every monday night
     C G                                
And loving her like i dont have her and shutting up even when im right
 Cadd9 G                                            
And its playing her this new song i just wrote on this ole six string
 C D                                                  
Yeah its the little things oh its the little things


                                                                               
CHORUS

One Of These Things First Tabs by Nick Drake

 Nick Drake - Milk and Honey

TUNING: BEBEBE  - highest two strings remain while the bottom 4 are tuned down.

Intro:

E:------------------------------------|
B:------------------------------------|
E:---4-4-----5-5-----7-7-----6--5-----|  x4
B:--0-0-0---2-2-2---4-4-4---3--2------|
E:-0-------0-------0-------0--0-------|
B:------------------------------------|


Verse:

E:------------------------------------|
B:------------------------------------|
E:---4-4-----5-5-----7-7-----6--5-----|  x4
B:--0-0-0---2-2-2---4-4-4---3--2------|
E:-0-------0-------0-------0--0-------|
B:------------------------------------|

E:------------------------------------------------------------------------|
B:------------------------------------------------------------------------|
E:---0-0-----0-0-----0-0-----0-0---------3-3-----3-3-----3-3-----3-3------|
B:--5-5-5---5-5-5---5-5-5---5-5-5-------3-3-3---3-3-3---3-3-3---3-3-3-----|
E:-5-------5-------5-------5-----------3-------3-------3-------3----------|
B:------------------------------------------------------------------------|

E:------------------------------------|
B:------------------------------------|
E:---4-4-----5-5-----7-7-----6--5-----|  x2
B:--0-0-0---2-2-2---4-4-4---3--2------|
E:-0-------0-------0-------0--0-------|
B:------------------------------------|

E:------------------------------------|
B:------------------------------------|
E:---3-3-----3-3-----0-0-----0-0------|
B:--3-3-3---3-3-3---2-2-2---2-2-2-----|
E:-3-------3-------2-------2----------|
B:------------------------------------|

E:------------------------------------|
B:------------------------------------|
E:---4-4-----5-5-----7-7-----6--5-----|  x1
B:--0-0-0---2-2-2---4-4-4---3--2------|
E:-0-------0-------0-------0--0-------|
B:------------------------------------|

E:------------------------------------|
B:------------------------------------|
E:---3-3-----3-3-----0-0-----0-0------|
B:--3-3-3---3-3-3---2-2-2---2-2-2-----|
E:-3-------3-------2-------2----------|
B:------------------------------------|

E:------------------------------------|
B:------------------------------------|
E:---4-4-----5-5-----7-7-----6--5-----|  x1
B:--0-0-0---2-2-2---4-4-4---3--2------|
E:-0-------0-------0-------0--0-------|
B:------------------------------------|

Chorus:

E:--------------------------------------------------------------------------------|
B:--------------------------------------------------------------------------------|
E:---0-0-----0-0-----0-0-----0-0---------0----0----0----0----0----0----0----0-----|
B:--5-5-5---5-5-5---5-5-5---5-5-5-------2----2----2----2----2----2----2----2------|
E:-5-------5-------5-------5-----------2----5----2---------2----5----2------------|
B:----------------------------------------------------2-------------------2-------|

E:------------------------------------|
B:------------------------------------|
E:---4-4-----5-5-----7-7-----6--5-----|  x1
B:--0-0-0---2-2-2---4-4-4---3--2------|
E:-0-------0-------0-------0--0-------|
B:------------------------------------|

E:--------------------------------------------------------------------------------|
B:--------------------------------------------------------------------------------|
E:---0-0-----0-0-----0-0-----0-0---------0----0----0----0----0----0----0----0-----|
B:--5-5-5---5-5-5---5-5-5---5-5-5-------2----2----2----2----2----2----2----2------|
E:-5-------5-------5-------5-----------2----5----2---------2----5----2------------|
B:----------------------------------------------------2-------------------2-------|

E:------------------------------------|
B:------------------------------------|
E:---4-4-----5-5-----7-7-----6--5-----|  x2
B:--0-0-0---2-2-2---4-4-4---3--2------|
E:-0-------0-------0-------0--0-------|
B:------------------------------------|

Verse:

Chorus:

Interlude:

E:------------------------------------|
B:-------------------

Joey chords – The Pretty Things

 Intro:  Am7 Em7 Am7 Em7 C Em7 C Em7 Em D C C - D - Em D A/C# A 
Wouldn't I be yours?   wouldn't you be mine?   
 D D/C Bm Am G - D/F# - Em -  D   - C 
Wouldn't I always want the things you are, every   day or year?
                    B C B B7 
It's got to be a dream, yes it is, yes it is, it's got to be a dream, yes it is

 Em D C C - D - Em D A/C# A 
Wouldn't I need yours?  wouldn't you need mine?
 D D/C Bm Am G - D/F# - Em -  D   - C 
Wouldn't I always want the things you are, every   day or year?
                    B              
It's got to be a dream, yes it is,
            C B              
It's gotta be, it's it's gotta be, it's gotta be a dream, yes it is

 A D A D A D 
Wouldn't I always think about you? wouldn't I every day?  wouldn't always think about you?
  B G E G B E    -   F A 
Joey's in a dream,  Joey's in a dream,  Joey's in a dream I had today
  G G#m -5                            A A#m -5            Bsus4   -  B Bsus - B 
Joey's in a dream, Joey's in a dream, Joey's in a lovely place, Joey's got a similing face
  C C#m -5                            D D#m -5            Esus4   -  E 
Joey's in a dream, Joey's in a dream, Joey's in a lovely place, Joey's got a similing face

Solo: (Esus4-E) x3  ( Em D C C - D -Em) x2   Em D C Bm Am G - D/F# - Em Em D C C - D - Em D A/C# A 
Wouldn't I be yours?   wouldn't you be mine?  
 D D/C Bm Am G - D/F# - Em -  D   - C 
Wouldn't I always want the things you are, every   day or year?
                    B              
It's got to be a dream, it's gotta be,
 C B              
It's gotta be, it's got to be a dream, yes it is

 A D A D A D 
Wouldn't I always think about you? wouldn't I every day?  wouldn't always think about you?
  B G E G B E    -   F E    -   F 
Joey's in a dream, Joey's in a dream, Joey's in a dream I had to, dream I had to
   E    -   F A 
Dream I had today
  G G#m -5                            A A#m -5            Bsus4   -  B Bsus - B 
Joey's in a dream, Joey's in a dream, Joey's in a lovely place, Joey's got a similing face
  C C#m -5                            D D#m -5          

All Things New chords – Praise And Worship

 Intro: [ F#  -  C# ]

Verse 1:
 F# C# 
Peace be still, You are near
 F# 
There's nowhere we can go
 C# 
That You won't shine redemption's light
Our guilt withdrawn

PreChorus 1:
 G# F# G# F# 
As You rise, we come alive
 G# F# G# F# 
The grave has lost, the old is gone

Chorus:
 C# F# 
And You're making all things new
 C# F# 
You are making all things new
 C# F# 
You are making all things new
 C# 
And we are free

Verse 2:
Hope is found, You are here
Our hearts forever sealed
By this love that came for us
Now we are Yours

PreChorus 2:
As You rise, we come alive

Bridge:
 F# G# 
Your love never ending
 A#m G# 
Your grace never failing
 F# G# A#m  -  G# 
Redemption is calling us home

The Quient Things That No One Ever Knows Tabs by Brand New

 ARTIST: Brand New
SONG: The Quiet Things That No One Ever Knows 
: Music2myearhole
EMAIL: Marxyooj

TUNING: Eb Ab Db Gb Bb eb

My First time submitting tabs 

p - Pull Off

/ - Slide down from

\ - Slide Up from

. - Palm mute

(x#) - Number of strums 




INTRO

eb|---3p2---2------3p2----0-----3p2---2-----3p2---2--3/5------|
Bb|-------3---3---------3---3-------3---3--------3--3---------|
Gb|-----------------------------------------------------------|
Db|----------------------------------------0------------------|
Ab|----------------------------3------------------------------|
Eb|-3------------0--------------------------------------------|

CHORUS

Rhythm Guitar (All down strum)

eb|-----------------------------------------------------------|
Bb|-----------------------------------------------------------|
Gb|-----------------5-------7---------------------------------| (Repeat x2)
Db|-5-------2-------5-(x8)--7-(x8)----------------------------|
Ab|-5-(x8)--2-(x8)--3-------5---------------------------------|
Eb|-3-------0-------------------------------------------------|

Lead Guitar 

eb|----------10-------------------10--------------------------|  
Bb|-7h8-7h8------8-7h8---7h8-7h8------8-7h8-------------------|
Gb|-----------------------------------------------------------| (Repeat x2)
Db|-----------------------------------------------------------|
Ab|-----------------------------------------------------------|
Eb|-----------------------------------------------------------|
                     
eb|--------------15-------------------------15----------------|
Bb|-12h13-12h13------13-12h13--12h13-12h13------13-12h13------|
Gb|-----------------------------------------------------------|
Db|-----------------------------------------------------------|
Ab|-----------------------------------------------------------|
Eb|-----------------------------------------------------------|

eb|----------10-------------------10--------------------------|
Bb|-7h8-7h8------8-7h8---7h8-7h8------8-7h8-------------------|
Gb|-----------------------------------------------------------|
Db|-----------------------------------------------------------|
Ab|-----------------------------------------------------------|
Eb|-----------------------------------------------------------|

eb|----------10-------------------10--------------------------|
Bb|-7h8-7h8------8-7h8---7h8-7h8------8-7h8-------------------|
Gb|-----------------------------------------------------------|
Db|-----------------------------------------------------------|
Ab|-----------------------------------------------------------|
Eb|-----------------------------------------------------------|

eb|--------------15-------------------------15----------------|
Bb|-12h13-12h13------13-12h13--12h13-12h13------13-12h13------|
Gb|-----------------------------------------------------------|
Db|-----------------------------------------------------------|
Ab|-----------------------------------------------------------|
Eb|-----------------------------------------------------------|

eb|----------10-------------------10--------------------------|
Bb|-7h8-7h8------8-7h8---7h8-7h8------8-7h8-------------------|
Gb|-----------------------------------------------------------|
Db|-----------------------------------------------------------|
Ab|-----------------------------------------------------------|
Eb|-----------------------------------------------------------|

eb|--------------15-------------------------15----------------|
Bb|-12h13-12h13------13-12h13--12h13-12h13------13-12h13------|
Gb|-----------------------------------------------------------|
Db|-----------------------------------------------------------|
Ab|-----------------------------------------------------------|
Eb|-----------------------------------------------------------|

VERSE  

RHYTHM GUITAR

eb|-------------------

You Make All Things Well chords – Chris Tomlin

 You Make All Things Well  -  Chris Tomlin

Capo 2

Verse 1:
           G D 
Mountain maker
        Am7 C/G 
Ocean tamer
             G    
Glimpses of You
             D   
Burn in my eyes
                 Am7 
The worship of heaven
              C/G 
Fills up the skies


Chorus:
             G 
You made it all
                   D 
Said, "let there be"
           Am7 
And there was
             C/G 
All that we see
                    G 
The sound of Your voice
                    D 
The works of Your hands
        Am7 C/G 
You do all things well
        G D 
You do all things well
        Am7 C/G 
You do all things well


Verse 2:
        G D 
Star creator
       Am7 C/G 
Wind breather
                      G 
The strokes of Your beauty
                       D 
Brushed through the clouds
                Am7 
Light from the heavens
               C/G 
Touching the ground


Bridge:
 G D Am7 
  Imagination runs wild
      C/G G 
And breathes the breath of life
             D 
Across the fields
            Am7 C/G 
Across the miles