Tag: three

Three Corn Patches chords – Elvis Presley

 C 
I said three corn patches about four cotton fields away

        F C 
I said three corn patches about four cotton fields away

 G7 F C 
Lives the prettiest girl in the whole darn U.S.A. I said a



She's got big brown eyes and long black wavy hair

           F C 
She's got big brown eyes and long black wavy hair

 G7 F C 
She's so beautiful people it don't seem fair



Well I've been to Chicago been to New Orleans

          F C 
Yes I've been to Chicago been to New Orleans

 G7 F C 
But I'd rather see my baby workin' in her old blue jeans


 C 
I said three corn patches about four cotton fields away

        F C 
I said three corn patches about four cotton fields away

 G7 F C 
Lives the prettiest girl in the whole darn U.S.A. I said a



She keeps a big bulldog out in the yard all night

             F C 
She keeps a big bulldog out in the yard all night

 G7 F C 
Well he barks like he's bare but he don't bite


 C 
I said three corn patches about four cotton fields away

        F C 
I said three corn patches about four cotton fields away

 G7 F C 
Lives the prettiest girl in the whole darn U.S.A. I said a


 C 
I said three corn patches about four cotton fields away

        F C 
I said three corn patches about four cotton fields away

 G7 F C 
Lives the prettiest girl in the whole darn U.S.A. I said a

In Front Of Me Tabs – Three Days Grace

 -------------------------------------------------------------------------------
                           Three Days Grace - In Front of Me
-------------------------------------------------------------------------------
: Diesel
 daughtryfan497

Tuning: Drop C ( C - G - C - F - A - D)

Artist: Three Days Grace
 Three Days Grace EP
Year: 2000


                          Intro and Verse

e|------------------------------------------------------------------------------|
B|------------------3-----------------------------------------------------------|
G|------------------0-----------------------------------------------------------|
D|-2--2--0----------x-----------------------------------------------------------|
A|-2--2--0--x3-0-0--3-----------------------------------------------------------|
E|-2--2--0-----0-0--------------------------------------------------------------|
   *  *        * *

                           Verse

e|------------------------------------------------------------------------------|
B|------------------------------------------------------------------------------|
G|------------------------------------------------------------------------------|
D|---999-10-999-12--999-10-9----------------------------------------------------|
A|---999-10-999-12--999-10-9--x4------------------------------------------------|
E|---999-10-999-12--999-10-9----------------------------------------------------|

                               Chorus

e|-----------------------------------------------------------------------------|
B|-----------------------------------------------------------------------------|
G|------9--5-------------------------------------------------------------------|
D|------9--5--5---7------------------------------------------------------------|
A|------7--3--5---7--x4--------------------------------------------------------|
E|------------5---7------------------------------------------------------------|


                                   Interlude

e|-----------------------------------------------------------------------------|
B|-12~----------12~-----------12~------------12~-------------------------------|
G|-12~-9---15---12~-9---------12~--9---15----12~-9-----------------------------|
D|-----x----x-------x--12---7------x---x---------x-----------------------------|
A|-----7---13-------7--12---7------7---13--------7-----------------------------|
E|---------------------12---7--------------------------------------------------|

Verse
Pre Chorus
Chorus
Verse
Pre Chorus
Chorus
Interlude
Pre Chorus (PM)
Chorus
Pre Chorus

************************************

| /   slide up
| \   slide down
| h   hammer-on
| p   pull-off
| ~   vibrato
| +   harmonic
| x   Mute note
| b   Bend
| pb  Pre-bend
| br  Bend release
| pbr Pre-bend release
| brb Bend release bend

************************************

Beneath The Piano Tabs – The Devil Makes Three

 No Capo

[Intro] - | E7 | A7 | E7 | B7 | E7 | A7 | E7 B7 | E7 | 
                                                            P.M. -Cresc.
e |---0---0---0---0-|---------5-5-----|---0---0---0---0-|-----------------|
B |---3---3---3---3-|---5---8-5-5-8-5-|---3---3---3---3-|---0---0-----0---|
G |---1-X-1---1-X-1-|---6-X-6-6-6-6-6-|---1-X-1---1-X-1-|---2-X-2-2-2-2---|
D |---0-X-0---0-X-0-|---7-X-7-7-7-7-7-|---0-X-0---0-X-0-|---1-X-1-1-1-1---|
A |---2-X-2---2-X-2-|-0---X---0-0-0-0-|---2-X-2---2-X-2-|-2---X-----------|
E |-0-------0-------|-----------------|-0-------0-------|-----------------|

e |---0---0---0-----|-----------------|---0---0---------|--0---0---0-0-0--|
B |---3---3---3---3-|---5---8---8-7-5-|---3---3---0---0-|--3---3---3-3-3-2|
G |---1-X-1---1---X-|---6-X-6-X-6-6-6-|---1-X-1---2-X-2-|--1-X-1---1-1-1-0|
D |---0-X-0---0---0-|---7-X-7-X-7-7-7-|---0-X-0---1-X-1-|--0-X-0---0-0-0-0|
A |---2-X-2---2-2-1-|-0---X---X-------|---2-X-2-2---X---|--2-X-2---2-2-2-1|
E |-0-------0-------|-----------------|-0---------------|0-------0--------|

[Verse 1] - | E7 | A7 | E7 | B7 | x2                 | E | C | B D | E | x2

e |---0---0---0---0-|---------5-5-----|---0---0---0---0-|-----------------|
B |---3---3---3---3-|---5---8-5-5-8-5-|---3---3---3---3-|---0---0---0---0-|
G |---1-X-1---1-X-1-|---6-X-6-6-6-6-6-|---1-X-1---1-X-1-|---2-X-2---2-X-2-|
D |---0-X-0---0-X-0-|---7-X-7-7-7-7-7-|---0-X-0---0-X-0-|---1-X-1---1-X-1-|
A |---2-X-2---2-X-2-|-0---X-----------|---2-X-2---2-X-2-|-2---X---2---X---|
E |-0-------0-------|-----------------|-0-------0-------|-----------------|

e |---0---0---0---0-|-----------------|---0---0---0---0-|-----------------|
B |---3---3---3---3-|---5---8---8---5-|---3---3---3---3-|---0---0---0---0-|
G |---1-X-1---1-X-1-|---6-X-6---6-X-6-|---1-X-1---1-X-1-|---2-X-2---2-X-2-|
D |---0-X-0---0-X-0-|---7-X-7---7-X-7-|---0-X-0---0-X-0-|---1-X-1---1-X-1-|
A |---2-X-2---2-X-2-|-0---X---0---X---|---2-X-2---2-X-2-|-2---X---2---X---|
E |-0-------0-------|-----------------|-0-------0-------|-----------------|

e |---0---0---0---0-|-----------------|-----------------|-----------0---0-|
B |---3---3---3---3-|---5---5---5---5-|---4---4---7---7-|---3---3---3---3-|
G |---1-X-1---1-X-1-|---3-X-3---3-X-3-|---2-X-2---5-X-5-|---1-X-1---1-X-1-|
D |---0-X-0---0-X-0-|---5-X-5---5-X-5-|---4-X-4---7-X-7-|---0-X-0---0-X-0-|
A |---2-X-2---2-X-2-|-3---X---3---X---|-2---X---5---X---|---2-X-2---2-X-2-|
E |-0-------0-------|-----------------|-----------------|-0-------0-------|

e |---0---0---0---0-|-----------------|-----------------|-----------0---0-|
B |---3---3---3---3-|---5---5---5---5-|---4---4---7---7-|---3---3---3---3-|
G |---1-X-1---1-X-1-|---3-X-3---3-X-3-|---2-X-2---5-X-5-|---1-X-1---1-X-1-|
D |---0-X-0---0-X-0-|---5-X-5---5-X-5-|---4-X-4---7-X-7-|---0-X-0---0-X-0-|
A |---2-X-2---2-X-2-|-3---X---3---X---|-2---X---5---X---|---2-X-2---2-X-2-|
E |-0-------0-------|-----------------|-----------------|-0-------0-------|

[Verse 2] - | E7 | A7 | E7 | B7 | x2                 | E | C | B D | E | x2

e |---0---0---0---0-|-----------------|---0---0---0---0-|-----------------|
B |---3---3---3---3-|---5---8-5-5-8-5-|---3---3---3---3-|---0---0---0---0-|
G |---1-X-1---1-X-1-|---6-X-6-6-6-6-6-|---1-X-1---1-X-1-|---2-X-2---2-X-2-|
D |---0-X-0---0-X-0-|---7-X-7-7-7-7-7-|---0-X-0---0-X-0-|---1-X-1---1-X-1-|
A |---2-X-2---2-X-2-|-0---X-----------|---2-X-2---2-X-2-|-2---X---2---X---|
E |-0-------0-------|-----------------|-0-------0-------|-----------------|

e |---0---0---0---0-|-----------------|---0---0---0---0-|-----------------|
B |---3---3---3---3-|---5---8---8---5-|---3---3---3---3-|---0---0---0---0-|
G |---1-X-1---1-X-1-|---6-X-6---6-X-6-|---1-X-1---1-X-1-|---2-X-2---2-X-2-|
D |---0-X-0---0-X-0-|---7-X-7---7-X-7-|---0-X-0---0-X-0-|---1-X-1---1-X-1-|
A |---2-X-2---2-X-2-|-0---X---0---X---|---2-X-2---2-X-2-|-2---X---2---X---|
E |-0-------0-------|-----------------|-0-------0-------|-----------------|

e |---0---0---0---0-|-----------------|---0-

Three Cheers For Five Years chords – Mayday Parade V4

 Since I've yet to find a tab for this in the right key, let alone with the right words or all the chords where
they should be - here y'all go. I love this song so I thought it'd be nice to share a more accurate version...
I hope I've done it justice. This is only my second tab... please rate and comment, it would be helpful! 
- Charlie :)

Key: B

Tuning: Standard EADGBe

~ hold chord
/ repeat chord (strum down)

Chords:

B    [799877] or [223332]
 F#    [244322]
 G#m   [466444]
 E     [022100]

Intro: (the 4th section isn't quite right because it's hard to hear, but this is how I play it)

          B F# G#m F# 
e|---------2-------|---------2-------|---------2-------|---------2-------|
B|---0---0---0---0-|---0---0---0---0-|---0---0---0---0-|---0---0---0---0-|
G|-4---4-------4---|-3---3-------3---|-1---1-------1---|-----------------|
D|-----------------|-----------------|-----------------|-4---4-------4---|
A|-----------------|-----------------|-----------------|-----------------|
E|-----------------|-----------------|-----------------|-----------------|
         x2                x2                x2                x2

Verse 1: (you can repeat the intro or play the chords below)

                                B 
I swear that you don't have to go
                                 F# 
I thought we could wait for the fireworks
                                  E  
I thought we could wait for the snow
                          F# 
To wash over Georgia and kill the hurt
                                 B 
I thought I could live in your arms
                          F# 
And spend every moment I had with you
                             E  
Stay up all night with the stars
                              F# 
Confess all the faith that I had in you (I had in you)


Refrain:

 G#m F# E 
  To late, I'm sure and lonely
               E 
Another night, another dream wasted on you
 G#m F# E 
  Just be here now against me
                   E  ~
You know the words so sing along for me baby


Chorus:

 B E G#m 
For heaven's sake I know you're sorry
                    E 
But you won't stop crying
           F# B 
This anniversary may never be the same
          E G#m 
Inside I hope you know I'm dying
                 E 
With my heart beside me
              F# E 
In shattered pieces that may never be replaced
          F#          //        /
And if I died right now you'd never be the same


Interlude 1: 

          B F# G#m              
e|---------2-------|---------2-------|-2~~-222222222222|
B|---0---0---0---0-|---0---0---0---0-|-0~~-000000000000|
G|-4---4-------4---|-3---3-------3---|-1~~-111111111111|
D|-----------------|-----------------|-----222222222222|
A|-----------------|-----------------|-----222222222222|
E|-----------------|-----------------|-----------------|
         x2                x2                               

Verse 2:

                            G#m 
I thought with a month of apart
                           F# 
Together would find us an opening
                                  E 
And moonlight would provide the spark
                          E 
And that I would stumble across the key
                               G#m 
Or break down the door to your heart
                          F# 
Forever could see us not you and me
                              E 
And you'd help me out of the dark
                             E 

Three Bells For Stephen chords – Mickey Newbury

 Three Bells for Stephen

          C E7 F 
Do you remember me, dear hearts and gentle people 
   G C G 
I pray I have not stayed away too long 
        C E7 F  
Do you think of me, dear hearts and gentle people 
 F#dim G 
You can buy my memories for a song 

 C E7 F 
Can you see the blue hills of Kentucky
 G C G                          
Can you see my old Kentucky home 
 C E7 F 
Can you hear my sweetheart sadly singing 
 F#dim G G7 
In a voice as pure and sweet as heather in the gloom 

Will you pray for me, fear hearts and gentle people 
For what I have seen has brought me to my knees 
On those lonely nights I could find no sleep 
Oh I would unlock my heart and soul on strings and ivory keys 

Now I come to you, dear hearts and gentle people 
A voice across an endless sea of time 
Where ever there are songs I will be singing 
      C G F 
Dear hearts and gentle people goodnight 
      C G F C 
Dear hearts and gentle people goodnight

I Am Machine chords – Three Days Grace

 I Am Machine
Three Days Grace

Highest Vocal Note in this Key:
 A# 

TIP: Transpose these chords (using the transpose tool on the left) until the key you are 
in corresponds to the highest

note you are able to sing.

TIP: The sections of this song that repeat  C Dm  and  A# C  can be replaced with simply a 
 Dm  and  C . It makes strumming and singing the song much easier.

Intro
 C Dm C Dm C Dm C Dm C Dm C A# Am G F A# C A# C A# C A# C A# C A# G Am A# Em Dm 
Here's to being human
 Dm 
All the pain and suffering
 Dm 
There's beauty in the bleeding
 Dm 
At least you feel something

   Dm C 
I wish I knew what it was like
    A# Am 
To care enough to carry on
   Dm C 
I wish I knew what it was like
    A# Am 
To find a place where I belong, but

 C Dm C Dm 
I am machine
 C Dm C Dm 
I never sleep
 C Dm C A# Am G F 
I keep my eyes wide open
 A# C A# C 
I  am machine
 A# C A# C 
A  part of me
 A# C A# G Am A# Em 
Wishes I could just feel something
 C Dm C Dm 
I am machine
 C Dm C Dm 
I never sleep
 C Dm C A# Am G F 
Until I fix what's broken
 A# C A# C 
I  am machine
 A# C A# C 
A  part of me
 A# C A# G Am A# Em 
Wishes I could just feel something

 Dm 
Here's to being human
 Dm 
Taking it for granted
 Dm 
The highs and lows of living
 Dm 
To getting second chances
   Dm C 
I wish I knew what it was like
    A# Am 
To care about what's right or wrong
   Dm C 
I wish someone could help me find
 A# Am 
Find a place where I belong, but

 C Dm C Dm 
I am machine
 C Dm C Dm 
I never sleep
 C Dm C A# Am G F 
I keep my eyes wide open
 A# C A# C 
I  am machine
 A# C A# C 
A  part of me
 A# C A# G Am A# Em 
Wishes I could just feel something
 C Dm C Dm 
I am machine
 C Dm C Dm 
I never sleep
 C Dm C A# Am G F 
Until I fix what's broken
 A# C A# C 
I  am machine
 <s

Sign Of The Times chords – Three Days Grace

 Sign Of The Times
Three Days Grace
Transit of Venus

Highest Vocal Note in this Key:
 C 

TIP: Transpose these chords (using the transpose tool on the left) until the key you are 
in corresponds to the highest

note you are able to sing.


This is a sign of the times
Another mountain to climb
The sun burns as hot as the flame in the devil’s eyes
 Em 
   This is a sign of the times
                     Am 
Another mountain to climb
     G Em 
The sun burns as hot as the flame in the devil’s eyes
 D C 
   Oooh oooh oooooh

 Em 
   There’s chaos on the rise
                    Am 
The sky is raining knives
 G 
We have mistaken
     Em D 
The toll that is taken on you and I
         C Am C Am 
You and I, (you and I),    you and I

 Em 
    There’s chaos on the rise
The sky is raining knives
 Am 
We have mistaken
     G D Em 
The toll that is taken on you and I
 Am 
   The oceans have gone dry
 G Em D 
Venus is passing by
         C Am C Am 
You and I, (you and I),    you and I

 Em 
    There’s chaos on the rise
The sky is raining knives
 Am 
We have mistaken
     G D 
The toll that is taken on you and I

                     Em 
I gave you what you need
                     C 
I gave you what you need
     Am 
You and
 C Am 
You and
 C Am 
You and
                 Em 
I gave what you need
We have mistaken
The toll that is taken on
 C 
We have mistaken
                        Em 
The toll that is taken on

I gave you what you need
                     C 
I gave you what you need
                     Em 
I gave you what you need

Painkiller chords – Three Days Grace V2

 Painkiller
Three Days Grace

Highest Vocal Note in this Key: 
 C# 

TIP: Transpose these chords (using the transpose tool on the left) until the key you are in 
corresponds to the highest note you are able to sing.

Intro
 B C#m D C#m B C#m B C#m D E B C#m D C#m B C#m B C#m E B C#m B C#m D C#m B C#m B C#m E 
     You know you need a fix when you fall down
 B C#m   
     You know you need to find a way
    A F#m 
To get you through another day
 B C#m B C#m D C#m B C#m B C#m E 
     Let me be the one to numb you out
 B C#m 
     Let me be the one to hold you
 A F#m 
Never gonna let you get away

TIP: If it is easier for you, you can also just strum  C#m  throughout the intro and all of the 
" B C#m " sections.

     A 
The shoulder you cry on
     B 
The dose that you die on

 C#m F#m E D 
I, I can be your painkiller,   killer,   killer
 C#m F#m E D 
     You'll love me 'til it's all over,   over
                C#m A 
'Cause I'm the shoulder you cry on
     E B 
The dose that you die on
 C#m F#m E D 
I, I can be your painkiller,   killer,   killer


 B C#m B C#m D C#m B C#m B C#m E 
      I know what you want so desperately
 B C#m       
      You know I'll give you one for free
    A F#m 
Forever you're coming back to me
 B C#m B C#m D C#m B C#m B C#m E 
      Now I'm gonna give you what you need
 B C#m A 
'Cause I know what you feed on and what you lean on
              F#m 
And what you lead on

     A 
The shoulder you cry on
     B 
The dose that you die on

 C#m F#m E D 
I, I can be your painkiller,   killer,   killer
 C#m F#m E D 
     You'll love me 'til it's all over,   over
                C#m A 
'Cause I'm the shoulder you cry on
     E B 
The dose that you die on
 C#m F#m E D 
I, I can be your painkiller,   killer,   killer


 A C#m E D A C#m 
   Did you find another cure?
 E D 
   Did you find another cure?

 B C#m D C#m B C#m B C#m D E B C#m D C#m B C#m B C#m E C#m F#m E D 
I, I can be your painkiller,   killer,   killer
 C#m F#m E D 
     You

A Moments Rest chords – The Devil Makes Three

 The Devil Makes Three - A Moment's Rest

 C F C 
Lord, I got a heart full of hatred 
 C F G 
For me there sure ain't no cure 
 C F C 
I wake up and I'm running 
         G C  
I don't know what I'm running for 

 C F C 
Lord, I got a head full of worry
 C F G 
Why that is, I've never known 
 C F C 
I can go back where I came from 
     G C  
But I ain't ever going home 


 D G F C 
All this talking does not hold the answers to this life 
 D G F G 
All you get is a moment's rest from what haunts you deep inside 
                     C G Am G D G C G C Am G 
Is that good enough tonight, is that good enough tonight


 C F C 
Lord, I got eyes full of fire
 C F G 
They can burn off the rain 
 C F C 
But I gotta swim to the bottom 
         G C  
Just to keep from busting into flame


 D G F C 
Oh, that bottle does not hold the answers to this life 
 D G F G 
All you get is a moment's rest from what haunts you deep inside 
                     C G Am G D G C G C Am G 
Is that good enough tonight, hope that's good enough tonight


 C F C 
Lord, I got a heart full of hatred 
 C F G 
For me there sure ain't no cure 
 C F C 
I wake up and I'm running 
         G C  
I don't know what I'm running for 

Goodbye Old Friend chords – The Devil Makes Three

 The Devil Makes Three - Goodbye Old Friend

   C Am 
I need you and I want you 'cause I know you from before
   F G 
I hate you and I fear you but I hold open the door
   C Am 
I see you and you see me and we know what must be done
       F G 
So we draw knives and lock eyes 'cause it does no good to run


 C Am 
Goodbye old friend, farewell it seems
 F G 
We'll dance again in my dreams
 C Am 
Goodbye old friend, farewell it seems
 F G 
We'll dance again in my dreams


   C Am 
I've missed you, you know that's true and I've retraced every scar
    F G 
My head sings and the steel rings 'cause we've traveled, oh so far
   C Am 
I chased you to embrace you like the sun chases the moon
   F G 
I burn you and you burn me but I know I'll see you soon


 C Am 
Goodbye old friend, farewell it seems
 F G 
We'll dance again in my dreams
 C Am 
Goodbye old friend, farewell it seems
 F G 
We'll dance again in my dreams


      C Am 
I've watched you and I've seen you and known that you were there
      F G 
I've held and you've loved me but our lives cannot be spared
   C Am 
I trust you and despised you, shadowed your every move
 F G 
Scorned you and warned you, befriended everyone you've used


 C Am 
Goodbye old friend, farewell it seems
 F G 
We'll dance again in my dreams
 C Am 
Goodbye old friend, farewell it seems
 F G 
We'll dance again in my dreams

Drown chords – Three Days Grace

 Tuning: Standard

 Bm  : x24432
 G   : 355433
 D   : x54232
 F#m : 244222


 [Intro:]  Bm G F#m Bm G     
Good morning day
 F#m 
Sorry I'm not there
 Bm G   
But all my favourite friends
 F#m 
Vanished in the air
 Bm G F#m 
It's hard to fly when you can't even run
 Bm G F#m      
Once I had the world, but now I've got no one


  [Chorus:]
 Bm G 
If I needed someone to control me
 D F#m 
If I needed someone to hold me down
 Bm G 
I would change my direction
 D F#m 
And save myself before I
 Bm G 
If I needed someone to control me
 D F#m 
If I needed someone to push me around
 Bm G 
I would change my direction
 D F#m 
And save myself before I drown….drown


 [Intro again]


 Bm G 
Good morning day
 F#m 
Sorry you're not here
 Bm G 
All those times before
 F#m 
We're never this unclear
 Bm G F#m 
It's hard to walk when you can't even crawl
 Bm G F#m 
Once I had this world, but now I've lost it all


    [Chorus]


 Bm 
Drown
 G F#m 
Rolling faster than I'm breathing
 Bm 
Drown
 G F#m 
Rolling faster than I'm breathing
 Bm 
Drown
 G F#m 
Rolling faster than I'm breathing


    [Chorus]

Bitter Taste chords – Three Days Grace

 -----------------------------------------------------------------------
                             BITTER TASTE - Three Days Grace
--------------------------------------------------------------------------
 a7xlucas@live.com

Tuning: standard (EADGBe)

Chords used:  Eb/G Cm Gm Dm Eb Bb 

Note: For the intro you can play it like the original version has it:
 Gm Gm Gm Fm Gm G# Gm Gm Gm Gm Fm Gm G# Gm Fm Eb Bb 

Intro:  Gm Gm Eb Bb  2x

 Gm 
Just let me say one thing
 Gm Eb Bb 
I've had enough
 Gm 
You're selfish and sorry
 Gm Eb Bb 
You'll never learn how to love
 Gm 
As your world disassembles
 Gm Eb Bb 
Better keep your head up

 Eb 
Your name,
 Bb 
Your face is
 Gm 
All you have left now
 Eb Bb 
Betrayed, disgraced
 Cm Dm 
You've been erased

 Cm Gm 
So long, so long
 Eb Bb 
I have erased you
 Cm Gm   
So long, so long
      Eb Bb 
I've wanted to waste you
    G# Eb/G 
So long, so long
 Fm 
I have erased you
 Fm 
I have escaped
     Gm Cm Gm 
The bitter taste of you

 Gm Gm Eb Bb  2x

 Gm 
Just let me clear my head
 Gm Eb Bb 
I think I've had too much
 Gm 
You're so disappointing
 Gm Eb Bb 
But you make good use of it
 Gm 
As your world disassembles
 Gm Eb Bb 
Better keep your head up

 Eb 
Your name,
 Bb 
Your face is
 Gm 
All you have left now
 Eb Bb 
Betrayed, disgraced
 Cm Dm 
You've been erased


 Cm Gm 
So long, so long
 Eb Bb 
I have erased you
 Cm Gm   
So long, so long
      Eb Bb 
I've wanted to waste you
    G# Eb/G 
So long, so long
 Fm 
I have erased you
 Fm 
I have escaped
     Gm Cm Gm 
The bitter taste of you


[guitar solo]
Intro:  Gm Gm Eb Bb  4x

[guitar solo duel thing]
 Eb Cm Gm G#  2x

 Eb 
Your name,
 Bb 
Your face is
 Gm 
All you have left now
 Eb Bb 
Betrayed, disgraced
 Cm Dm 
You've been erased


 Cm Gm 
So long, so long
        Eb 
I have erased you
 Cm Gm   
So long, so long
      Bb 
I've wanted to waste you
    G# Eb/G 
So long, so long
 Fm 
I have erased you
 Fm 
I have escaped
     Gm 
The bitter taste ...
 Fm 
I have escaped
     Gm ~              Cm Cm G# Eb 
The bitter taste of you

 Cm Cm G# Eb Cm

Three Cheers For Five Years Acoustic chords – Mayday Parade V3

 Song: Three Cheers For Five Years (Acoustic Version)
Artist: Mayday Parade

Standard Tuning
Capo 4th fret        



                                 G 
I swear that you dont have to go
                                 Gsus2 
I thought we could wait for the fireworks
                                 Em7 
I thought we could wait for the snow
                          Cadd9 
To wash over Georgia and kill the hurt
                                G 
I thought I could live in your arms
                         Gsus2 
And spend every moment I had with you
                            Em7 
Stay up all night with the stars
                              Cadd9 
Confess all the faith that I had in you


PRE-CHOURS:


 Em7 Gsus2 G 
Too late, Im sure and lonely

Another night, another dream wasted on you
 Em7 Gsus2 G 
Just be here now against me

You know the words so sing along for me baby


CHORUS:

 G Gsus2 Em7 
For heaven's sake I know you're sorry
                    Cadd9 
But you won't stop crying
           Gsus2 G 
This anniversary may never be the same
          Gsus2 Em7 
Inside I hope you know I'm dying
                 Cadd9 
With my heart beside me
              Gsus2 Em7 
In shattered pieces that may never be replaced
          Gsus2 
And if I died right now you'd never be the same

INTERLUDE/VERSE 2:
  ( G )                                ( Gsus2 )
e|----------------------------------|----------------------------------|
B|---------3---------------3--------|---------3---------------3--------|
G|-5-0-5-0---0-5-0-5-0-5-0---0-5-0--|---0---0---0---0---0---0---0---0--|
D|----------------------------------|-4---4-------4---4---4-------4----|
A|----------------------------------|----------------------------------|
E|----------------------------------|----------------------------------|

                                      Em7 
  (Cadd9)      I thought with a month of apart
e|----------------------------------|
B|---------3---------------3--------|
G|---0---0---0---0---0---0---0---0--|
D|-2---2-------2---2---2-------2----|
A|----------------------------------|
E|----------------------------------|

                           Gsus2 
Together would find us an opening
                                 G 
And moonlight would provide the spark

And that I would stumble across the key
                                Em7 
Or break down the door to your heart
                          Gsus2 
Forever could see us not you and me
                             G 
And youd help me out of the dark

And Id give my heart as an offering


PRE-CHORUS


CHORUS

OUTRO:

     Em7 Gsus2 Cadd9 G 
And I will always remember you as you are right now to me
     Em7 Gsus2 G Cadd9 
And I will always remember you now, remember you now

    Cadd9 Gsus2 Em7 
So sleep alone tonight with no one here just by your side
             G 
Sleep alone tonight

 Em7 
How does he feel, how does he kiss?
 Gsus2 
How does he taste while he's on your lips?
 Em7 
How does he feel, how does he kiss?
 Gsus2 
How does he taste while he's on your lips?
 Em7 
How does he feel, how does he kiss?
 Gsus2 
How does he taste while he's on your lips?

 Em7 
I can't forget you
   G

Three Lock Box Tabs by Sammy Hagar V2

 -----------------------------------------------------------------------------
                                  
                Three Lock Box  - Sammy Hagar (GUITAR)
            
-----------------------------------------------------------------------------
: Scotto10

Tuning: Standard

This is a very tricky song when you REALLY look at it. time signature changes
and tempo changes all over the place. The solo is not that interesting so I 
didn't put a 100% effort into it. Sorry

=============================================================================

Guitar



                     S  S S S S E.  E  E     S  S S S S E.  S  S E    
E||-------|-------|-----------------------|--------------------------|
B||-------|-------|-----------------------|--------------------------|
G||-------|-------|---------2---2---------|---------2---2------------|
D||-------|-------|---------2---2---------|---------2---2------------|
A||-------|-------|--3b-0---0---0---------|--3b-0---0---0---3b-0-----|
E||-------|-------|-----------------0--3--|----------------------3b--|


  S S S S S E.  S  S S  S    S S S S S E.  S  S S  S    S  S S S S E.  E  E   
--------------------------|--------------------------|-----------------------|
--------------------------|--------------------------|-----------------------|
--------2---2-------------|--------2---2-------------|---------2---2---------|
--------2---2-------------|--------2---2-------------|---------2---2---------|
--------0---0---3b-0------|--------0---0---3b-0------|--3b-0---0---0---------|
--3-5----------------3p-0-|--3-5----------------3p-0-|-----------------0--3--|


  S  S S S S E.  E   E      S S S S S E.  S  S S  S  
-------------------------|--------------------------|
-------------------------|--------------------------|
---------2---2-----------|--------2---2-------------|
---------2---2-----------|--------2---2-------------|
--3b-0---0---0---3b------|--------0---0---3b-0------|
---------------------3b--|--3-5----------------3b-0-|


  S  S S S S E.  S  S S  S    S  S S S S E.  E  E     S  S S S S E.  E   E    
---------------------------|-----------------------|-------------------------|
---------------------------|-----------------------|-------------------------|
---------2---2-------------|---------2---2---------|---------2---2-----------|
---------2---2-------------|---------2---2---------|---------2---2-----------|
--3b-0---0---0---3b-0------|--3b-0---0---0---------|--3b-0---0---0---3b------|
----------------------3p-0-|-----------------0--3--|---------------------3b--|


  S S S S S E.  S  S S  S    S  S S S S E.  S  S S  S    S S S S S S Q    E   
--------------------------|---------------------------|----------------------|
--------------------------|---------------------------|----------------------|
--------2---2-------------|---------2---2-------------|--2-----2-----2----L--|
--------2---2-------------|---------2---2-------------|--2-----2-----2----L--|
--------0---0---4p-0------|--3b-0---0---0---3p-0------|--0-----0-----0----L--|
--3-5----------------3b---|----------------------3p-0-|----------------------|


  H.              H        Q       H.              S  S S S S E.  E  E   
---------------|-----------2----|--L------------|-----------------------|
---------------|--3--------3----|--L------------|-----------------------|
--L------------|--0--------2----|--L------------|---------2---2---------|
--L------------|--0--------0----|--L------------|---------2---2---------|
--L------------|--x-------------|---------------|--3b-0---0---0---------|
---------------|--3-------------|---------------|-----------------0--3--|


  S  S S S S E.  S  S E      S  S S S S E.  E  E     S  S S S S E.  S  S S  S  
--------------------------|-----------------------|---------------------------|
--------------------------|-----------------------|---------------------------|
---------2---2------------|--

Three Minutes Of Ecstasy chords – Ninja Sex Party V2

 The other version on here is not quite correct, and so I decided to make my own. 
Not sure if this is 100% correct, especially with eventual chord colorings, but it 
is definitely possible to play along to the recording with this.


Capo on 1st fret. (Since this is a guitar site, I decided to do the chords as they 
are played with a capo on the first fret, since that makes the chords simpler. If 
you want to play along to the recording with another instrument, or don't have a 
capo, use the transpose function to transpose the chords up half a step.)

*Intro*
 A E G#m C#m A E C#m D 

*Verse*
 A E G#m C#m 
You've been counting all the days off
 A E G#m D 
Of your calendar for weeks now
 A E G#m C#m 
You can't wait for Saturday 'cause
 A E G#m D 
That's the night that it all goes down
 A E G#m C#m 
From 7:45 to 7:48 PM in particular
 D A/E B Bsus4 B      
Cause that is when I'll give you what you need

*Chorus*
 E D A 
Three minutes of ecstasy several nights a month
                  F 
You just tell me baby if that is too much
 E D 
When my stuff is in your stuff
                    A 
Our souls become entwined
         F 
For 180 seconds
                       A 
My sex has blown your mind

*Repeat intro*

(Oh my god you're so welcome.)

*Verse*
Go ahead and call all your girlfriends
And give them the details of how it went down
I know you can't wait, to brag to all of them
About how I took your ass to Wangtown
I'll get my captain's hat, put on my floaties
And we'll set for sexy seas, for at least...

*Chorus*
Three minutes of ecstasy
Any more and this house would burn
That's why I don't last longer
Your safety is my main concern
If you haven't finished
Well baby that's just fine
You know that I'm here for you
Oh shit, look at the time

*Repeat intro again*

(I have to go to the pudding store, for pudding. Adieu....)

 E 
1 one thousand, 2 one thousand
 G 
3 one thousand, 4 one thousand
 C 
5 one thousand, 6 one thousand
 D/A 
7 one thousand, 8 one thousand
 E 
9 one thousand, 10 one thousand
 G 
11 one thousand, 12 one thousand
 C 
13 one thousand, 14 one thousand
 D/A 
15 one thousand, 16 one thousand
 E G C 
(Maybe it's starting to sink in, just how long three minutes really is. Let's skip to the end...
                 D/A 
179 one thousand, 180 one thousand HU-AAAH!!!
GAH!)

*Chorus*
Three minutes of ecstasy
Several nights a month
But not more than four times a month
That would be ridiculous

I'm sure I left you happy
But in case that's not enough
Here's a copy of my headshot
And a drawing of my nuts
A drawing of my nuts 
A drawing of my nuts...

(Repeat chorus to fade)

Three Band Terror chords – Linkin Park

 D G 
We swim against the rising waves and crash against the shore
     D G D 
The body bends until it breaks, the early morning sings no more

    D G 
We swim against the rising waves and crash against the shore
     D G                   
The body bends until it breaks, then sings again no more
     A G D 
The winds have torn the flesh away, the early morning sings no more

    D G 
We swim against the rising waves and crash against the shore
     D G 
The body bends until it breaks, then sings again no more
     A G D 
The winds have torn the flesh away, the early morning sings no more

        A G D 
'Cause time has torn the flesh away, the early morning sings no more

Three Minutes Of Ecstasy chords – Ninja Sex Party

 Intro:  Bb ,  F ,  Dm ,  Bb ,  F ,  D# Bb F Dm 
You've been counting all the days off
 Bb F D# 
Of your calendar for weeks now
 Bb F Dm 
You can't wait for Saturday cause
 Bb F D# 
That's the night that it all goes down
 Bb F Dm 
From 7:45 to 7:48 PM in particular
 D# F G 
Cause that is when I'll give you what you need

 F D# Bb 
Three minutes of ecstasy several nights a month
                 D# F 
You just tell me baby if that is too much
                  D# 
When my stuff is in your stuff
                    Bb 
Our souls become entwined
         D# 
For 180 seconds
(cutoff)
My sex has blown your mind

 Bb ,  F ,  Dm ,  Bb ,  F ,  D# 
(Oh my god you're so welcome.)

 Bb F Dm 
Go ahead and call all your girlfriends
 Bb F D# 
And give them the details of how it went down
 Bb F Dm 
I know you can't wait, to brag to all of them
 Bb F D# 
About how I took your ass to Wangtown
 Bb F Dm 
I'll get my captain's hat, put on my floaties
 D#                                
And we'll set for sexy seas, for at least...


 F D# 
Three minutes of ecstasy
                              Bb 
Any more and this house would burn
                        D# 
That's why I don't last longer
                   F 
Your safety is my main concern
                D# 
If you haven't finished
                      Bb 
Well baby that's just fine
                        D# 
You know that I'm here for you

Oh shit, look at the time

 Bb ,  F ,  Dm ,  Bb ,  F ,  D# 
(I have to go to the pudding store, for pudding. Adieu....)

 F 
1 one thousand, 2 one thousand
 D# 
3 one thousand, 4 one thousand
 Bb 
5 one thousand, 6 one thousand
 D# 
7 one thousand, 8 one thousand
 F 
9 one thousand, 10 one thousand
 D# 
11 one thousand, 12 one thousand
 Db 
13 one thousand, 14 one thousand
 D# 
15 one thousand, 16 one thousand


                                                     
 F D# Db 
Maybe it's starting to sink in, just how long three minutes really is. Let's 
                                                  D#  (few strums then hold)
skip to the end... 179 one thousand, 180 one thousand HU-AAAH!!! 


GAH!

 F D# 
Three minutes of ecstasy
                  Bb 
Several nights a month
                        D# 
But not more than four times a month
                 F 
Than would be ridiculous
                      D# 
Im sure Ive left you happy
                       Bb 
But in case thats not enough
                    D# 
Heres a copy of my headshot
                     F D# 
And a drawing of my nuts
                 Bb D# 
A drawing of my nuts 
                 F D# 
A drawing of my nuts
                 Bb D# 
A drawing of 

The South chords – The Cadillac Three

 The Cadillac Three- The South
Tuning: Standard
(capo 2)

Intro:  E A D E  x2

   E A D E 
Boots and buckles, red clay and sand 
  E A D E 
My point ain’t subtle here, I’m a Southern man 
    E A 
Where the beer seems cooler and the women seem hotter  
           D E 
Where the world don’t seem so damn modern 
        E A D E 
And a good ole boy like me still has a chance 
      E A D E 
This is where I was Born this is where I’ll die 
     E A D E 
Yeah, this is where I was born and this is where I’ll die 

 E A D E E 
It’s all about the South 
    A D E           
Georgia, Alabama, Mississippi, Louisiana, Carolina, 
                     E 
Don’t you wanna get down and dirty 
   A 
Cause, Florida I’m thirsty, 
  D E 
Hit me with your Tennessee whiskey and crank it up loud
                 A  
Laid back, you crazy old timer, 
         D E 
sweet magnolia, dive bars and diners, oh yeah 
          A D 
Oh, and even if you’re up North, c’mon down, c’mon down… 
                   E A D E 
Oh, it’s all about the South. 

    E A D E 
From daddy’s Don Williams to Mama’s Patsy Cline
  E A D E  
Oh, We’re “Walkin’ After Midnight” singing “Tulsa Time”, Oh, yeah
     E A  
Where the beer seems cooler and the women seem hotter 
             D E 
Where the world don’t seem so damn modern 
     E A D E 
Yeah,This is where I was Born this is where I’ll die 
Oh That’s Right! 

                      E 
It’s all about the South  
     A D E 
Georgia, Alabama, Mississippi, Louisiana, Carolina, 
                        E 
Don’t you wanna get down and dirty 
       A 
Cause, Florida I’m thirsty, 
    D E 
Hit me with your Tennessee whiskey and crank it up loud
                           A D E  
Laid back, you crazy old timer, sweet magnolia, dive bars and diners, oh yeah
  E A D  
Oh, and even if you’re up North, c’mon down, c’mon down… 
                          E 
Oh, it’s all about the South. 

Instrumental ( Softly Strum) 

   E C ’mon
    A  
Yeah— 
           D E 
Bring it on down and sing it with me now 
(Gang vocals) 
     E A D E 
This is where I was born and this is where I’ll die (yeah, this is where I’ll die)
    E A D E  
This is where I was born and this were I’ll die .. 

Chorus: 
                      E 
It’s all about the South 
       A D E 
Georgia, Alabama, Mississippi, Louisiana, Carolina, 
                        E 
Don’t you wanna get down and dirty 
      A 
Cause, Florida I’m thirsty,
  D E  
Hit me with your Tennessee whiskey and crank it up loud 
             A 
Laid back, crazy old timer, 
              D 

One Two Three Acoustic chords – Noa Moon

 Artist: Noa Moon
Song: One Two Three (acoustic)
Video: http://www.youtube.com/watch?v=TYpVgoDXBaQ
Transcription: satir3, satir3@net.hr

Tuning: standard, no Capo

Chords used:
C:   x.3.2.0.1.0
C/B: x.2.0.0.1.0
Am:  x.0.2.2.1.0
F:   1.3.3.2.1.1
G2:  3.5.5.4.3.3

Intro: 
 C C/B Am F 

Verse: 
 C C/B 
One two three four
 Am F 
Tell me that you love more
 C C/B 
Sleep less long night
 Am F 
That was what my youth was for

Chorus:
 C C/B Am F 
Alternation saliva at your door
 C C/B 
Just to get all night 
 Am F  
To only a lie
 G2 
Oh oh oh
 F 
You're changing your heart
 G2 
Oh oh oh
 F 
You know who you are

Break:
 C C/B Am F   x2

Verse:
 C C/B 
Sweetheart bitheart 
 Am F 
No one can tell you apart
 C C/B 
Cousy and cold 
 Am F 
Blood to heart before you're old

Chorus:
 C C/B Am F 
Destination sweet tears in their eyes
 C C/B  
Just get to all night 
 Am F  
To only a lie
 G2 
Oh oh oh
 F 
You're changing your heart
 G2 
Oh oh oh
 F 
You know who you are

Bridge:
 C C/B Am F C C/B Am F  
            Oldest majorness
        C C/B Am F  
Who you are
 C C/B Am F   x2

Verse: 
 C C/B 
One two three four
 Am F 
Five six nine and ten
 C C/B Am 
Money can't buy you back
      F C C/B Am F 
Love that you had then
 C C/B 
One two three four
 Am F 
Five six nine and ten
 C C/B Am 
Money can't buy you back
      F C C/B Am F 
Love that you had then

Chorus:
 G2 
Oh oh oh
 F 
You're changing your heart
 G2 
Oh oh oh
 F 
You know who you are

Ending:
 C C/B Am F C C/B Am F  
            Oldest majorness
        C C/B Am F C C/B Am F 
Who you are        Oldest majorness
 C C/B Am F  x3
 C