Tag: tired

Ill Never Grow Tired Of You chords – Patty Loveless

 Patty Loveless - I'll Never Grow Tired Of You


CAPO: 2nd Fret




INTRO:  C F C G C F C 
It's been a long time since you drifted away
                        G C  
Now there's nothing to live for it seems
     F C 
But darling no matter where you are tonight
                  G C  
You're here with me in my dreams


CHORUS:
      F C 
I'll never grow tired of you, sweetheart
                        G  
No matter what you may do
      C F C 
They tell me lately you're living so wrong
                     G C  
But I'll never grow tired of you


                               F C 
I see your two blue eyes each night in my dreams
         G C  
When I awake you're not there
      F C 
Come back to me and let's start life anew
               G C  
Losing you is so hard to bear


CHORUS:
      F C 
I'll never grow tired of you, sweetheart
                        G  
No matter what you may do
      C F C 
They tell me lately you're living so wrong
                     G C  
But I'll never grow tired of you


INSTRUMENTAL:  C F C G C F C G C F C 
I still wonder why you drifted away
                    G C  
From the happiness that might have been
   F C 
I vision the time you'd some day be mine
                 G C  
And cherish the love I can't win


CHORUS:
      F C 
I'll never grow tired of you, sweetheart
                        G  
No matter what you may do
      C F C 
They tell me lately you're living so wrong
                     G C  
But I'll never grow tired of you

Tired Of Running Tabs by Snoop Lion

 -------------------------------------------------------------------------------
                             Tired of Running - Snoop Lion featuring Akon
-------------------------------------------------------------------------------
: Shawn N.
 shawnnydegger

Tuning: EADGBE

Hand muted throughout

e|---------------------------------------------------------------------------|
B|---------------------------------------------------------------------------|
G|-------------------------2-0-----------------------------------------------|
D|---------1-1-1-1-4-4-4-4-----4-2-0-----------------------------------------|
A|-2-2-2-2---------------------------2-0------------------------2-0----------|
E|---------------------------------------3-2-0----------------------3-2-0----|

e|---------------------------------------------------------------------------|
B|---------------------------------------------------------------------------|
G|---------------------------------------------------------------------------|
D|---------------------------------------------------------------------------|
A|--------------2-0-----2----------------------------------------------------|
E|------------------3-2------------------------------------------------------|

(Repeated through the entire song)


Solo is pentatonic 7th fret

Email me with any corrections. Thanks and please rate.

Side Effects Of Being Tired Tabs by Unwound V2

 Artist/ Unwound
Song: "Side Effects of Being Tired"
 Challenge for a Civilized Society (1998)


standard tuning

Intro riff:
e|------------------------------------------------|
B|-10-10-10-10-10-10-10-10-10-10-10-10------------|
G|-------------------------------------8--8--8--8-|
D|-7--7--7--7--7--7--7--7--7--7--7--7--6--6--6--6-|
A|-7--7--7--7--7--7--7--7--7--7--7--7--8--8--8--8-|
E|------------------------------------------------|


Verse riff:
e|------------------------------------------------|
B|-8--8--8--8--8--8--8--8--8--8--8--8-------------|
G|-------------------------------------8--8--8--8-|
D|-7--7--7--7--7--7--7--7--7--7--7--7--6--6--6--6-|
A|-7--7--7--7--7--7--7--7--7--7--7--7--8--8--8--8-|
E|------------------------------------------------|


Pre-Chorus riff:
e|-0--0--0--0--0--0--0--0--0--0--0--0--0--0--0--0-|
B|------------------------------------------------|
G|-9--9--9--9--9--9--9--9--10-10-10-10-10-10-10-10|
D|------------------------------------------------|
A|-0--0--0--0--0--0--0--0--0--0--0--0--0--0--0--0-|
E|------------------------------------------------|
+
e|-0--0--0--0--0--0--0--0--0--0--0--0--0--0--0--0-|
B|------------------------------------------------|
G|-12-12-12-12-12-12-12-12-13-13-13-13-13-13-13-13|
D|------------------------------------------------|
A|-0--0--0--0--0--0--0--0--0--0--0--0--0--0--0--0-|
E|------------------------------------------------|


Chorus riff:
e|-0--0--0--0--0--0--0--0--0--0--0--0--0--0--0--0-|
B|------------------------------------------------|
G|-10-10-10-10-10-10-10-10-9--9--9--9--9--9--9--9-|
D|------------------------------------------------|
A|-0--0--0--0--0--0--0--0--0--0--0--0--0--0--0--0-|
E|------------------------------------------------|
+
e|-0--0--0--0--0--0--0--0--0--0--0--0--0--0--0--0-|
B|------------------------------------------------|
G|-12-12-12-12-12-12-12-12-13-13-13-13-13-13-13-13|
D|------------------------------------------------|
A|-0--0--0--0--0--0--0--0--0--0--0--0--0--0--0--0-|
E|------------------------------------------------|
+
e|------------------------------------------------|
B|------------------------------------------------|
G|-14----------------------------------------12---|
D|----------14-------15-------11-------12---------|
A|------------------------------------------------|
E|------------------------------------------------|
+
e|------------------------------------------------|
B|------------------------------------------------|
G|-14-------------------------12------------------|
D|----------14-------15----------------12----11---|
A|------------------------------------------------|
E|------------------------------------------------|
+
e|------------------------------------------------|
B|------------------------------------------------|
G|-14----------------------------------------12---|
D|----------14-------15-------11-------12---------|
A|------------------------------------------------|
E|------------------------------------------------|
+
e|------------------------------------------------|
B|------------------------------------------------|
G|-14-------------------------12------------------|
D|----------14-------15----------------12----11---|
A|------------------------------------------------|
E|------------------------------------------------|


Bridge riff (after improvised noise w/ delay):
e|(0)---------------------(0)---------------------|
B|------------------------------------------------|
G|-9-----------------------10---------------------|
D|------------------------------------------------|
A|-0-----------------------0----------------------|
E|------------------------------------------------|
+
e|(0)---------------------(0)---------------------|
B|------------------------------------------------|
G|-12----------------------13---------------------|
D|------------------------------------------------|
A|-0----

I Dont Want You As A Ghost Tabs by Tired Pony

 CAPO 6

Gary Lightbody plays the following chords live on acoustic guitar

C  x32010
F  13321x
Am x02210
Em 022010
G  32001x

Electric guitar riff without capo (played live by Jacknife Lee)

e ----9-----------9---------------|
B -12---10-----12---10------------|
G ---------10---------------------|
D --------------------------------|
A --------------------------------|
E --------------------------------|

Solo

e -----------------------------------------------------|
B -----------------------------------------------------|
G -11--10------------------------------6---------------|
D --------13--11--13--11\4----4--6--8------6--4--------|  x2
A -----------------------------------------------------|
E -----------------------------------------------------|



INTRO
C  F x8
C

VERSE
         F                C
Well I want you as you are
       F                C
Not some collapsing star
       F                     C
I'll wait I'll wait for good
         F
What else can I do

CHORUS
Am       Em                F
I don't want you as a ghost
Am       Em                   F
I don't want you as a fading light
Am       Em                        F
I don't want to be the weight you carry
Am       Em                           F            C
I just want to be the man you come home to every night

C  F x2
C
VERSE
         F                C
Well I want you as you are
        F                 C
Don't be someone you're not
     F                 C
The kids that we once were
        F
They wouldn't know us now

CHORUS
Am       Em                F
I don't want you as a ghost
Am       Em                   F
I don't want you as a fading light
Am       Em                        F
I don't want to be the weight you carry
Am       Em                           F            G
I just want to be the man you come home to every night
G

BRIDGE
Em  F  G x4
Oooh...
G

SOLO
Am  Em  F x4

CHORUS
Am       Em                F
I don't want you as a ghost
Am       Em                   F
I don't want you as a fading light
Am       Em                        F
I don't want to be the weight you carry
Am       Em                           F
I just want to be the man you come home to
Am       Em                           F              C
I just want to be the man you come home to every night



By Mig-El

Ravens And Wolves chords – Tired Pony

 Capo 6

Not sure about the chords for the verses. This is my best guess for now.


 Em  02200x
 D   x5400x
 C   x3200x
 G5  355xxx
 A5  577xxx
 E5  022xxx

Intro & Verse:  Em D C D 

Chorus & Outro:  G5 A5 E5 

Pattern for verse from what I can hear and what I can kind of see in live performances videos

e --------------------------------------------------||
B -------0-----------0-----------0-----------0------||
G -----0---0-------0---0-------0---0-------0---0----||
D ---2-------2---4-------4---2-------2---4-------4--||
A -2-----------5-----------3-----------5------------||
E --------------------------------------------------||


INTRO

VERSE
I remember every detail of it
The smells of the orange grove
Your dress and the way it hung upon you
That look that was in your eyes
At that time in the day the sun was weary
And that weariness bled to us
With your hands you could steady any vessel
And those hands wiped the blood from me

CHORUS
We are not the lions of the daylight
We are more like wolves in dead of night
We are more the raven in the schoolyard
Than all the larks about to sing

VERSE
I remember calm before this chaos
The sound as the coffee boiled
In the clear cup I watch the sugar melting
In this stillness a nagging thought

CHORUS
We are not the lions of the daylight
We are more like wolves in dead of night
We are more the raven in the schoolyard
Than all the larks about to sing

CHORUS
We are not the lions of the daylight
We are more like wolves in dead of night
We are more the raven in the schoolyard
Than all the larks about to sing

OUTRO

Im Begging You Not To Go chords – Tired Pony

 CAPO 7

***************SUMMARY********************

 C   x32010
 G   32001x
 F   13321x
 Em  02201x


Intro, Verse & Outro:   C G F 

Chorus & Bridge:  Em F G 

******************************************

Pattern for INTRO and some parts of the VERSE and OUTRO (Realtive to capo)

e -0-0-0-0---0-0-0-0-0-0-0-------------------------
B -1-1-1-1---1-1-1-1-1-1-1-1-1-1-1---1-1-1-1-1-1-1-
G -0-0-0-0---0-0-0-0-0-0-0-0-0-0-0h2-2-2-2-2-0-0-0-
 D  -2-2-0-0h2-2-2-2-2-0-0-0-0-0-0-0h3-3-3-3-3-3-3-3-
A -3-3-3-3---3-3-3-3-3-3-3-2-2-2-0h3-3-3-3-3-3-3-3-
E -------------------------3-3-3-1-1-1-1-1-1-1-1-1-


INTRO 
 C G F     x6

VERSE
 C G F 
I am begging you not to go
 C G F C G F 
I am begging you not to go
 C G F 

CHORUS
              Em F G 
If there's another way it is hiding from us darling
              Em F G 
'Cause the world outside doesn't need our help tonight
       Em F G 
Our shoes kicked off side by side like they are dancing
       Em F G  
The dark wood floor feels so cold under our feet
 G 

VERSE
 C G F 
I am begging you not to go
 C G F C G F 
I am begging you not to go
 C G F 

CHORUS
            Em F G 
We're the last to fall all around us sleeping bodies
          Em F G 
Drunken satellites in the orbit of our earth
         Em F G 
In the gentle night little whispers draw us closer
      Em F G       
So close to touch in the frayed collapsing light

BRIDGE
 Em F G 
Ohhh....          x4
 G 

VERSE
 C G F 
I am begging you not to go
 C G F C G F 
I am begging you not to go
 C G F 

OUTRO
 C G F   
Oh, I'm begging you not to go (I'm begging you not to go)
 C G F   
Oh, I'm begging you not to go (I'm begging you not to go)
 C G F   
Oh, I'm begging you not to go (I'm begging you not to go)
 C G F   
Oh, I'm begging you not to go (I'm begging you not to go)




By Mig-El