Tag: to

Come Back To Earth piano chords by Mac Miller

[Chorus]
     Cmaj7                 C7                     Fmaj7  Em7
My regrets look just like texts I shouldn't send
             A7                           Bb7
And I got neighbors, they're more like strangers
           Dm7  E7
We could be friends
               Am7  Bb       Dm
I just need a way out of my head
E                       Am7   C7
I'll do anything for a way out
        F  E
Of my head


[Verse]
C                             Dm
In my own way, this feel like living
Cmaj7          Dm7      Gm7 C7
Some alternate reality
Fmaj7                           E7     Am
And I was drowning, but now I'm swimming
Eb                          G
Through stressful waters to relief
        C             F
Oh, the things I'd do
E                          Am   C7
To spend a little time in hell
           F
And what I won't tell you
E                        Am
I prolly never even tell myself
F                       C
And don't you know that sunshine don't feel right
         Dm
When you inside all day
  C                            Dm
I wish it was nice out, but it looked like rain
Am                               F
Grey skies and I'm drifting, not living forever
     Am         C           F
They told me it only gets better


[Chorus]
     C                                       F   E7
My regrets look just like texts I shouldn't send
             Am7                          C7
And I got neighbors, they're more like strangers
           F    E7
We could be friends
              Am    Bb       F
I just need a way out of my head
           E             Am   C7
I'll do anything for a way out
       F  E7
Of my head

Cmaj7    Dm    Cmaj7

Come Back To Earth chords by Mac Miller

[Chorus]
     Cmaj7                 C7                     Fmaj7  Em7
My regrets look just like texts I shouldn't send
             A7                           Bb7
And I got neighbors, they're more like strangers
           Dm7  E7
We could be friends
               Am7  Bb       Dm
I just need a way out of my head
E                       Am7   C7
I'll do anything for a way out
        F  E
Of my head


[Verse]
C                             Dm
In my own way, this feel like living
Cmaj7          Dm7      Gm7 C7
Some alternate reality
Fmaj7                           E7     Am
And I was drowning, but now I'm swimming
Eb                          G
Through stressful waters to relief
        C             F
Oh, the things I'd do
E                          Am   C7
To spend a little time in hell
           F
And what I won't tell you
E                        Am
I prolly never even tell myself
F                       C
And don't you know that sunshine don't feel right
         Dm
When you inside all day
  C                            Dm
I wish it was nice out, but it looked like rain
Am                               F
Grey skies and I'm drifting, not living forever
     Am         C           F
They told me it only gets better


[Chorus]
     C                                       F   E7
My regrets look just like texts I shouldn't send
             Am7                          C7
And I got neighbors, they're more like strangers
           F    E7
We could be friends
              Am    Bb       F
I just need a way out of my head
           E             Am   C7
I'll do anything for a way out
       F  E7
Of my head

Cmaj7    Dm    Cmaj7

Back To You piano chords by Selena Gomez

[Intro] x2
C#m  A  E 

[Verse 1]
C#m              A
Took you like a shot
                     E
Thought that I could chase you with a cold evening
      C#m                             A             E
Let a couple years water down how I'm feeling about you

(Feeling about you)
C#m               A
And every time we talk
              E
Every single word builds up to this moment
            C#m                     A
And I gotta convince myself I don'€™t want it
              E
Even though I do (even though I do)

[Pre-Chorus]
C#m       A                 E
You could break my heart in two
                                C#m
But when it heals, it beats for you
             A                E
I know it's forward, but it's true

[Chorus]
C#m     A         E
I wanna hold you when I'€™m not supposed to
C#m            A         E
When I'm lying close to someone else
       C#m         A        E
You're stuck in my head and I can't get you out of it
   C#m           A
If I could do it all again
E*                        C#m A E   x2
I know I'd go back to you
                          C#m A E   x2
I know I'd go back to you
I know I'd go back to you

[Verse 2]
C#m             A
We never got it right
            E
Playing and replaying old conversations
             C#m              A
Overthinking every word and I hate it
                E
'Cause it'€™s not me (€Cause it's not me)
    C#m                 A
And what'€™s the point in hiding?
           E
Everybody knows we got unfinished business
         C#m
And I'll regret it if I didn't say
     A                   E
This isn't what it could be (isn't what it could be)

[Pre-Chorus]
C#m       A                 E
You could break my heart in two
                                C#m
But when it heals, it beats for you
            A                 E
I know it's forward, but it's true

[Chorus]
C#m     A        E
I wanna hold you when I'm not supposed to
C#m            A         E
When I'm lying close to someone else
        C#m        A         E
You're stuck in my head and I can't get you out of it
   C#m           A
If I could do it all again
E*                        C#m A E   x2
I know I'd go back to you
                          C#m A E
I know I'd go back to you
      C#m       A
I'd go back to you
        E
I'd go back to you
         C#m          A
What was there wasn't sure
           E
But I'd go back to you
I know I'd go back to you

[Bridge]
C#m     A        E
You can break my heart in two
                                C#m
But when it heals, it beats for you
            A
I know it's forward, but it's true
 E
Won't lie, I'd go back to you
C#m          A                    E
You know, my thoughts are running loose

It's just a thing you make me do
C#m         A                     E
And I could fight, but what's the use?

I know I'd go back to you

[Chorus]
C#m     A        E
I wanna hold you when I'm not supposed to
C#m            A        E
When I'm lying close to someone else
       C#m         A        E
You're stuck in my head and I can't get you out of it
   C#m           A
If I could do it all again
E*
I know I'd go back to you
C#m     A      E
I'd go back to you
C#m    A       E
I'd go back to you  (I know I'd go back to you)
       C#m         A
I'd go back to you
       E            C#m  A
I'd go back to you
E
I know I'd go back to you

[Outro]
    C#m     A        E
(Go back to you, go back to you)
    C#m     A        E
(Go back to you, go back to you)

Like To Be You piano chords by Shawn Mendes

Bm            A D
Don't cry, or do whatever makes you comfortable
Bm         A
I’m tired, too
        D                    Bm             A
There's nothin' left to say, let’s call the truce
       D                         G   A     Bm
'Cause I don't really wanna go to bed like this


[Pre-Chorus 1]
Bm A      D
   I'm so sorry
Bm      A           D
   That we're still stuck in the middle
Bm A      D
   I'm so sorry
G                A        Bm
   'Cause in the moment I


[Chorus]
  Bm                   A          D
I don't know what it’s like to be you
  Bm                   A            D
I don’t know what it's like but I’m dying to
   Bm            A            D
If I could put myself in your shoes
     G                  A          Bm
Then I'd know what it's like to be you


[Verse 2]
      Bm          A
Can I kiss you or not?
       D                             Bm          A
'Cause I’m not really sure right now of what you want
    D                    Bm         A
Are you still mad at me? I'm hopin' not
       D                        G
'Cause maybe we could go to the movies
            A               Bm
I know that always cheers us up, hey


[Pre-Chorus 2]
Bm A      D
   I'm so sorry
Bm      A           D
   That we're still stuck in the middle
Bm A      D
   I'm so sorry
G                A        Bm
   'Cause in the moment I


[Chorus]
  Bm                   A          D
I don't know what it’s like to be you
  Bm                   A            D
I don’t know what it's like but I’m dying to
   Bm            A            D
If I could put myself in your shoes
     G                  A          Bm
Then I'd know what it's like to be you


[Bridge 1]
Bm               A            D
Tell me what's inside of your head
   Bm              A           D
No matter what you say I won't love you less
    Bm           A         D
And I'd be lying if I said that I do
  G                    A          Bm
I don't know what it's like to be you
  G                    A          Bm
I don't know what it's like to be you



Shawn Mendes
"Like To Be You"

Standard tuning.

  Bm  Aadd4 D    G
e|--------------------|
B|--------------------|
G|7----6----11---4----| Note: All following instances of A are the Aadd4 
D|0----0----0----0----| chord are written as A for ease of reading.
A|--------------------|
E|7----5----10---3----|


[Intro]
  Bm       Aadd4   D                Bm      Aadd4    D
e|----------------|----------------|----------------|----------------|
B|----------------|----------------|----------------|----------------|
G|----7-------6---|----11-----11---|----7-------6---|----11-----11---|
D|--0---0---0---0-|--0---0--0----0-|--0---0---0---0-|--0---0--0----0-|
A|----------------|----------------|----------------|----------------|
E|7-------5-------|10-----10-------|7-------5-------|10-----10-------|

[Verse]
  Bm       Aadd4   D                Bm      Aadd4    D
e|----------------|----------------|----------------|----------------|
B|----------------|----------------|----------------|----------------|
G|----7-------6---|----11-----11---|----7-------6---|----11-----11---|
D|--0---0---0---0-|--0---0--0----0-|--0---0---0---0-|--0---0--0----0-|
A|----------------|----------------|----------------|----------------|
E|7-------5-------|10-----10-------|7-------5-------|10-----10-------|

  Bm       Aadd4   D                G       Aadd4    B
e|----------------|----------------|----------------|----------------|
B|----------------|----------------|----------------|----------------|
G|----7-------6---|----11-----11---|----4-------6---|----7-------7---|
D|--0---0---0---0-|--0---0--0----0-|--0---0---0---0-|--0---0---0---0-|
A|----------------|----------------|----------------|----------------|
E|7-------5-------|10-----10-------|3-------5-------|7-------7-------|

Bm            A D
Don't cry, or do whatever makes you comfortable
Bm         A
I’m tired, too
        D                    Bm             A
There's nothin' left to say, let’s call the truce
       D                         G   A     Bm
'Cause I don't really wanna go to bed like this


[Pre-Chorus 1]
Bm A      D
   I'm so sorry
Bm      A           D
   That we're still stuck in the middle
Bm A      D
   I'm so sorry
G                A        Bm
   'Cause in the moment I


[Chorus]
  Bm                   A          D
I don't know what it’s like to be you
  Bm                   A            D
I don’t know what it's like but I’m dying to
   Bm            A            D
If I could put myself in your shoes
     G                  A          Bm
Then I'd know what it's like to be you


[Verse 2]
      Bm          A
Can I kiss you or not?
       D                             Bm          A
'Cause I’m not really sure right now of what you want
    D                    Bm         A
Are you still mad at me? I'm hopin' not
       D                        G
'Cause maybe we could go to the movies
            A               Bm
I know that always cheers us up, hey


[Pre-Chorus 2]
Bm A      D
   I'm so sorry
Bm      A           D
   That we're still stuck in the middle
Bm A      D
   I'm so sorry
G                A        Bm
   'Cause in the moment I


[Chorus]
  Bm                   A          D
I don't know what it’s like to be you
  Bm                   A            D
I don’t know what it's like but I’m dying to
   Bm            A            D
If I could put myself in your shoes
     G                  A          Bm
Then I'd know what it's like to be you


[Bridge 1]
Bm               A            D
Tell me what's inside of your head
   Bm              A           D
No matter what you say I won't love you less
    Bm           A         D
And I'd be lying if I said that I do
  G                    A          Bm
I don't know what it's like to be you
  G                    A          Bm
I don't know what it's like to be you


[Solo]
       Bm    A     D        Bm     A    D       Bm    A     D       G      A     Bm         
e|---------------------------------------------------------------------------------------------------|
B|-----------------------------7------------7p5h7--5--8---7---------------------------------5--------|
G|-7\6/7----------------7\6/7-----/9-\7-7-----------------------9\7----------------------------7-----|
D|------------9\7--7----------------------------------------7------------9-------------4/7-----------|
A|------------------------------------------------------------------7--9---7---5-5-------------------|
E|---------------------------------------------------------------------------------------------------|

[Bridge 2]
Bm A     D
   I get worried
Bm A       D
   I might lose you a little
Bm A     D
   Every time we
   G             A             Bm
   Every time we argue and get caught up in the moment


[Chorus]
  Bm                   A          D
I don't know what it’s like to be you
  Bm                   A            D
I don’t know what it's like but I’m dying to
   Bm            A            D
If I could put myself in your shoes
     G                  A          Bm
Then I'd know what it's like to be you


[Outro]
   Bm               A            D
So tell me what's inside of your head
   Bm              A           D
No matter what you say I won't love you less
           Bm         A           D
And I'd be lying if I said that I do
  G                    A          Bm
I don't know what it's like to be you
  G                    A          Bm
I don't know what it's like to be you
  G                    A    Bm
I don't know what it's like



I Swear To God Acoustic chords by Tyler Childers

[Verse]
E
I only had a couple drinks last night
                                 E7
And few good hits from a antler pipe
    A
And I must admit i had a few white lines
   E
And I don't know what all happened

I woke up in the noon time light
                                    E7
With a poundin' head, shiner on my eye
A
And I don't know how and i don't why
          E
But it feels like fierce abandon

[Chorus]
B7                                             E
Ah, working on a buildin' out'a hand-hewn brimstone
B7                                                 E
Workin' on a buildin' and I'm buildin' on it all alone
A
Well there ain't nobody in my room tonight
Goodnight honey, honey sleep tight
E
Ma i swear I'm doing alright
B7
When the evenin' comes around
E
I swear to god

[Verse]
E
Pay no mind to the words I say
                           E7
Cause they ain't no count anyway
A
I been ramblin' around and led astray
E
By the paths that I been choosin’

Cuttin' paths like a forest fire
                                E7
Pupils wider than backhoe tires
A
Throwin' my money on a funeral pyre
E
But it sure feels good abusin’

[Chorus]
B7                                             E
Ah, working on a buildin' out'a hand-hewn brimstone
B7                                                 E
Workin' on a buildin' and I'm buildin' on it all alone
A
Well there ain't nobody in my room tonight

Goodnight honey, honey sleep tight
E
Ma i swear I'm doing alright
B7
When the evenin' comes around
E
I swear to god

[Solo] 
E A B7

[Bridge]
A                                 E
Bands too loud for their bible thumpin’
A                                   B7
Feels too good to not count for somethin’
E
Big Sandy rock, Sludge River roll
E
Goddamn, fire in the hole
A
Look out baby I'm bound to blow
E
I'm bound to blow a gasket
E
Damn good gig, good damn crowd
                      E7
Good God for cryin' out loud
A
Coming off stage I was mighty proud
E
Then I don't know what all happened

[Chorus]
B7                                             E
Ah, working on a buildin' out'a hand-hewn brimstone
B7                                                 E
Workin' on a buildin' and I'm buildin' on it all alone
A
Well there ain't nobody in my room tonight

Goodnight honey, honey sleep tight
E
Ma i swear I'm doing alright
B7
When the evenin' comes around
E
I swear to god

[Ending]
E
I Swear to God

The Things We Used To Share chords by Thomas Sanders

[Verse]

                 C
You can have the toaster
          Em
And the PC
          Am                D
Or even my Timothy Green DVD
                     C
I'll let you have the couch
          Em
And the TV
                Am                           D
Hang on to that jacket that you bought for me

[Chorus]

C                 E7
I don't really care
Am                                  F
You can keep the things we used to share
C                E7           Am     F
But what did you do with my heart?
C            E7           Am     F
What did you do with my heart?

[Verse]

C
No more fireworks
Em
No more compass
Am                               D
You didn’t leave a single butterfly in my stomach
            C
You took my spyglass--
           Em
No knowin’ what lies ahead
         Am
‘Took my warmth at night,
           D
But left a dent in my bed

[Chorus]

C                 E7
I don't really care
Am                                  F
You can keep the things we used to share
C                E7           Am     F
But what did you do with my heart?
C            E7           Am     F
What did you do with my heart?

[Verse]

                         C
You've stripped me of my pride--
       Em
That’s for the best,
           Am                    D
But you've also deprived me of a full night's rest
           C
So no more dreams
      Em
Where we pull through
      Am
And I can't collect my thoughts
D
‘Cause they're still with you

[Chorus]

C                 E7
I don't really care
Am                                  F
You can keep the things we used to share
C                E7           Am     F
But what did you do with my heart?
C            E7           Am     F
What did you do with my heart?

[Instrumental]

C  E7  Am  F  x4

[Bridge]

                   C
I wouldn't take it back
                   E7
Even though I feel sore
                Am
I meant it when I said
               F
What's mine is yours
      C
But I need to know
         E7
Now that we're apart
Am           F
What did you do
C
I need to know
         E7
Now that we're apart
Am           F                C  E7  Am  F
What did you do with my heart?
C            E7         Am     F
What did you do with my heart?   x3

Back To You chords by Louis Tomlinson

[Intro]
Fm Bb Eb C

[Verse 1: Bebe Rexha]
Fm                          Bb
I know you say you know me, know me well
          Eb                       C
But these days I don't even know myself, no
Fm                           Bb
I always thought I'd be with someone else
  Eb                            C
I thought I would own the way I felt, yeah

[Pre-Chorus: Bebe Rexha]
  Fm                          Bb
I call you but you never even answer
  Eb                               C
I tell myself I'm done with wicked games
    Fm                              Bb
But then I get so numb with all the laughter
     Eb                      C
That I forget about the pain

[Chorus: Bebe Rexha]
       Fm            Bb               Eb
Whoah, you stress me out, you kill me
            C                     Fm
You drag me down, you fuck me up
             Bb                      Eb
We're on the ground, we're screaming
             C                    Fm
I don't know how to make it stop
          Bb        Eb           C        Fm
I love it, I hate it, and I can't take it
      Bb                        Eb
But I keep on coming back to you

[Verse 2: Louis Tomlinson]
Fm                             Bb
I know my friends they give me bad advice
          Eb                      C
Like move on, get you out my mind
    Fm                        Bb
But don't you think I haven't even tried?
           Eb                             C
You got me cornered and my hands are tied

[Pre-Chorus: Louis Tomlinson & Bebe Rexha]
Fm                            Bb
You got me so addicted to the drama
  Eb                               C
I tell myself I'm done with wicked games
    Fm                              Bb
But then I get so numb with all the laughter
     Eb                      C
That I forget about the pain

[Chorus: Louis Tomlinson]
       Fm            Bb               Eb
Whoah, you stress me out, you kill me
            C                    Fm
You drag me down, you fuck me up
             Bb                        Eb
We're on the ground, we're screaming
             C                   Fm
I don't know how to make it stop
         Bb         Eb           C        Fm
I love it, I hate it, and I can't take it
      Bb                        Eb     C
But I keep on coming back to you (back to you)
          Fm       Bb                        Eb     C
Oh, no, no, I just keep on coming back to you (back to you)
          Fm       Bb                        Eb
Oh, no, no, I just keep on coming back to you

[Bridge: Louis Tomlinson]
Fm      Bb                      Eb
  And I guess you'll never know
        C                                Fm
All the bullshit that you put me through
      Bb                     Eb    C
And I guess you'll never know, no

[Pre-Chorus: Bebe Rexha & Louis Tomlinson]
         Fm                         Bb
Yeah, so you can cut me up and kiss me harder
Eb                              C
You can be the pill to ease the pain
       Fm                          Bb
'Cause I know I'm addicted to your drama
Eb                      C
Baby, here we go again

[Chorus: Bebe Rexha & Louis Tomlinson]
       Fm            Bb               Eb
Whoah, you stress me out, you kill me
            C                    Fm
You drag me down, you fuck me up
             Bb                      Eb
We're on the ground, we're screaming
             C                   Fm
I don't know how to make it stop
          Bb        Eb           C        Fm
I love it, I hate it, and I can't take it
      Bb                        Eb     C
But I keep on coming back to you (back to you)
          Fm       Bb                        Eb     C
Oh, no, no, I just keep on coming back to you (back to you)
          Fm       Bb                        Eb
Oh, no, no, I just keep on coming back to you
     C      Fm
Back to you
       Bb                        Eb
I just keep on coming back to you

Trying To Drive chords by Zac Brown Band

Chords included: G , F , C , D , Em , B , Bm , Db

[Intro]
Chord progression:  G , F , C , C

[Verse 1]
             G                      F          C
You know I'm never right if I'm not right with you
    G                       F        C
And no one can make me feel like you do
           G                        F      C
I'd be the one to lay my heart down on the line
   G                                F        C
So come and save me darlin' love me one more time

[Pre-Chorus]
D   C                 G
Cuz you're not always right
G       Em             D
Oh, and I'm not always wrong
D    C                G
It's not like I don't try
G         D
This is where we belong

[Chorus]
G       D
One way,
Em                 C
Everything's gotta be your way
G           D            C
But darlin', I'm on your side
           G          Bm          B                    Db
Cuz it's a one wheel, four hands, two hearts tryin' to understand
C                      D
How we gonna get there
(Rest)                     G          F  C
When we're both tryin' to drive (2x)

[Verse 2]
    G                       F      C
You might be right, and I'm out of touch
        G                         F            C
I guess everything I have to give just ain't enough
    G                             F         C
I'm trying to make the most outta what it's not
    G                                  F       C
Cuz darlin' I can't give you somethin' I ain't got

[Pre-Chorus]
D   C                 G
Cuz you're not always right
Em             D
I'm not always wrong
D    C                G
It's not like I don't try
G         D
This is where we belong

[Chorus]
G       D
One way,
Em                 C
Everything's gotta be your way
G           D            C
But darlin', I'm on your side
G          Bm          B                    Db
One wheel, four hands, two hearts tryin' to understand
C                      D
How we gonna get there
D                         Em
When we're both tryin' to drive

[Bridge]
Em                     C
I can feel it under my seat
C                      G
On the sideline of my life
G                         D
Watching rain fall to the ground
D                       G   Em
To the beat of the same old fight

Em                        C
Every song is brewing this war
C                             G
When we find ourselves in the thick of it
G                            D          D          D
Give a little bit, and we'll fly, we'll fly, we'll fly

[Chorus]
G       D
One way,
Em                 C
Everything's gotta be your way
G           D            C C
But darlin', I'm on your,
C
Darlin' I'm on your side
G          Bm          B                    Db
One wheel, four hands, two hearts tryin' to understand
C
How we gonna get there
G          Bm          B                    Db
One wheel, four hands, two hearts tryin' to understand
C                      D
How we gonna get there
D                 G     F  C
We both tryin' to drive
C         G      F  C
Tryin' to drive

[Outro]
Chord progression: G , F , C , C

A Love To Last A Lifetime Chords by Juris Fernandez

[Intro]
A - E - D (lalala lala lala)

[Verse]
A
We’re all just merely passing through
      F#m                               D#m
Doing what we can do in a lifetime
       Bm
We have more than one adventure to take
          E
More than one dream to make in our lifetime

       A                      Bm
As for me there’s only one dream
                          A                     
And that’s to love you my love
       F#m                Bm     E
With a love to last a lifetime

            A                                    
We’re fools we sometimes do crazy things
        F#m
And our hearts would take wins like a 
D#m
sparrow
           Bm
But that’s life

We’ll take each day as it comes
      E
Never leaving the crumbs for the morrow

       A                         D
As for me, all of my days I will spend them all 

with you
A                       E           D    A
Loving you with love to last a lifetime

[Refrain]
If we all could leave something lasting
              D
behind to be remembered by
       Bm                                        D#m
Just a song for me and then at least I would
     E
have tried

[Verse]
  A
I agree it’s not so much that we have
          F#m                     D#m
As how we use what we have in our lifetime
       Bm
Thirty years is worth a hundred and two
            E                          
It’s really what we can do in our lifetime
       
       A                         D
All my love i would give for as long as may 
live
        A                   E     D
With a love, true love, to last a lifetime
                     A
Love to last a lifetime

Time To Kill Tabs – Overkill Vsion 1

 OVERKILL - TIME TO KILL
(The Years Of Decay, 1989)

Key
= after note = vibrato
^ after note = heavy vibrato
\\ = slide down
/ = slide up
+ = tap
h = hammer
p = pull
n = natural harmonic
s = pinching harmonic (squeal)
* = tremolo pick
t = trill
b = bend
|-3-| = triplet

n number above the tab = play the first part then the first finishing part
                         play the first part a second time and then play the second finishing part
                         etc.

Riff 1

E ------------------------------------------------------------------
B ------------------------------------------------------------------
G ------------------------------------------------------------------
D -2---------------5---------------5---------5---------2------------
A -2---------------5---------------5---------5---------2------------
E -0---------0-2-0-3---------0-2-0-3---0-2-0-3---0-2-3-0------------

Riff 1A

E --------------------------------------------------------------------------
B --------------------------------------------------------------------------
G --------------------------------------------------------------------------
D -9---------9-11-9-12---------9-11-9-12---9-11-9-12---9-11-12-9------------
A --------------------------------------------------------------------------
E --------------------------------------------------------------------------

Riff 1B

E -----------------------------------------------------
B -----------------------------------------------------
G -----------------------------------------------------
D -2---------------5---------------5---------5---------
A -2---------------5---------------5---------5---------
E -0---------0-2-0-3---------0-2-0-3---0-2-0-3---0-2-3-

Riff 1C

E -------------------------------------------------------------
B -------------------------------------------------------------
G -------------------------------------------------------------
D -9---------9-11-9-12---------9-11-9-12---9-11-9-12---9-11-12-
A -------------------------------------------------------------
E -------------------------------------------------------------

Riff 1D

E ---------------------------------------------------------
B -15b17------------18b20------------18b20------18b20------
G ---------------------------------------------------------
D ---------------------------------------------------------
A ---------------------------------------------------------
E ---------------------------------------------------------

Riff 2

E ---------------------------------------------------------------------------------
B ---------------------------------------------------------------------------------
G ---------------------------------------------------------------------------------
D -2---------5---------3---------6---5---2---------5---------3---------5-----5-----
A -2---------5---------3---------6---5---2---------5---------3---------5-----5-----
E -0---0-0-0-3---0-0-0-1---0-0-0-4---3---0---0-0-0-3---0-0-0-1---0-0-0-3-0-0-3-0-0-

Riff 2A

E ------------------------------
B ------------------------------
G ------------------------------
D ----2---2---2---2---2---2---2-
A ----2---2---2---2---2---2---2-
E ----0---0---0---0---0---0---0-

Riff 2B

E -----------------------------------------------------------------------------------------------------------
B -----------------------------------------------------------------------------------------------------------
G -----------------------------------------------------------------------------------------------------------
D -2---------5---------3---------6---5---2---------5---------3---------5-----5-----2---------5-----5-----2---
A -2---------5---------3---------6---5---2---------5---------3---------5-----5-----2---------5-----5-----2---
E -0---0-0-0-3---0-0-0-1---0-0-0-4---3---0---0-0-0-3---0-0-0-1---0-0-0-3-0-0-3-0-0-0---0-0-0-3-0-0-3-0-0-0---

E -------------------
B -------------------
G -------------------
D -------5-----5-----
A -------5-----5-----
E -0-0-0-3-

Prisons To Purify chords – Sundara Karma

 Prison to purify - Sundara Karma ft. Marika Hackman 

Verse 1
 Em 
Silence holds our tongues
                      Am 
We’re fighting for a love that can’t be won
                     C 
Stuck frozen in the white hot sun
                    Em 
Our echoes lurking under run

Verse 2 
 Em  
Paralyzed with you, I found myself
     Am 
The one that can’t be two
                   C 
We’ve sunk into a deeper blue
                         Em 
I’ve come back down, so cut me loose

Pre-Chorus
 C 
How could I satisfy all the love in your eyes?
           Em  
I see you letting go
 C 
Every time that I try, all the love pushed aside
            Em 
Oh, how it hurts to know!

      Em Am 
Time wasted chasing this love I’m giving you
       C                     
Can’t shake it, break it, not getting through to you
         Em D  
And I’m faded graceless

Chorus
 Em 
I should have seen it before
                      Am 
I could not give anymore
                             C 
‘Cause I’ve got nothing to lose
I’m done with loving you
 Em 
I should have known from the start
                          Am 
I could not give you my heart
                        C 
Only when I hoped to find prisons to purify

Verse 3 [Marika Hackman]
 Em 
There’s no light to breathe
                       Am 
You’ve stolen all the air right out of me
                          C 
I’m hurting, wrecked and washed to sea
                 Em 
I suffocate the underneath

Pre-Chorus
 C 
How could I satisfy all the love in your eyes?
           Em  
I see you letting go
 C 
Every time that I try, all the love pushed aside
            Em 
Oh, how it hurts to know!

      Em Am 
Time wasted chasing this love I’m giving you
       C                     
Can’t shake it, break it, not getting through to you
         Em D 
And I’m faded graceless

Chorus
 Em 
I should have seen it before
                      Am 
I could not give anymore
                             C 
‘Cause I’ve got nothing to lose
I’m done with loving you
 Em 
I should have known from the start
                          Am 
I could not give you my heart
                        C 
Only when I hoped to find prisons to purify

Outro  Em C Am

Someone To Give My Love To chords – Glen Campbell

 Someone to give my love to
Glen Campbell

Intro   E D   

Verse 1

 E D A 
Well, I could search from now to the end of the time
                    E 
Never find another you
                                 D A 
Well I'm so glad because that I know you're mine
                    E 
Someone to give my love to

Verse 2

                                       D A 
Well, I believe, my love, that you're one of the kind
                              E 
For there's no one else like you
                                 D A 
You're the light of my life, so let it shine
                    E 
Someone to give my love to

Chorus 1

 A D C#          
Well, I find happiness is lovin' you    and I'll do my best
              F# F#7 B D E 
To make your dreams come true

Verse 3

                              D A 
Now I will follow you to the end of the earth
                           E 
For my place will be with you
                            D A 
Well, I have taken you for better or worse
                    E A 
Someone to give my love to

Chorus 2

                            D C# 
Well, I find happiness is lovin' you    and I'll do my best
              F# F#7 B E 
To make your dreams come true

Verse 4

                           D A 
Days of man and wife time are precious few
                                E 
And I will spend them all with you
                          D A 
Then beyond forever I'll wait for you
                    E 
Someone to give my love to
            D A E 
MMMMMMMM  mmmmmmmmmmmm     MMMMMMMM   mmmmm

Outro
                                       D E A 
Well, you're the light of my life, so let it shine
                            E 
Shine on me, my whole life through
                                       D A  
Well, you're the light of my life, so let it shine
                     E 
I need someone like you (Fade Quickly)

flyinglibra51
God Bless Glen Travis Campbell

By The Time I Get To Phoneix chords – Glen Campbell

 
By The Time I get to Phoenix
Glen Travis Campbell


Intro:  F Gm F Bb 

Verse 1

 Gm F Gm                   
By the time I get to Phoenix, she'll be rising.  She'll find the note I left
          F Bb C 
hanging on her door.   She'll laugh, when she reads the part, that says I'm 
 Am Gm D# C 
   leaving, cause I've left that girl so many times before.

Verse 2

       Gm F Gm 
By the time I make Albuquerque, she'll be working.  She'll probably stop at
                      F Bb C Am       dm
lunch and give me a call.   But she'll just hear that phone keep on ringing 
 Gm D# C        
off the wall, thats all.

Verse 3 


 Gm F 
By the time I make Oklahoma,  she'll be sleeping.
       Gm F Bb C    
She'll turn softly and call my name out low.  And she'll cry,  just to think, 
           Am Dm Gm C F Bb 
I'd really leave her.   Though time and time I've tried to tell her so.
      Gm A7 D C D C D 
She just didn't know,    I would really go.


Different version


Intro:  Fmaj7/A Gm7 Fmaj7/A Bbmaj7 

Verse 1

 Gm7 Fmaj7 Gm7                   
By the time I get to Phoenix, she'll be rising.  She'll find the note I left 
        Fmaj7 Bbmaj7 Cadd9 Am7      
hanging on her door.   She'll laugh, when she reads the part, that says I'm 
  Dm Gm7 Eb C7   
leaving cause I've left that girl so many times before.

Verse 2

       Gm Fmaj7 Gm7 
By the time I make Albuquerque, she'll be working.  She'll probably stop at 
                    Fmaj7 Bbmaj7 Cadd9 Am7 Dm  
lunch and give me a call.   But she'll just hear that phone keep on ringing 
  Gm7 Eb C7       
off the wall, thats all.  


 Gm7 Fmaj7 
By the time I make Oklahoma,  she'll be sleeping.
       Gm7 Fmaj7 Bbmaj7 Cadd9    
She'll turn softly and call my name out low.  And she'll cry,  just to think,
          Am7 Dm Gm7 C7 Fmaj7   
I'd really leave her.   Though time and time I've tried to tell her so.
 Bmaj7 Gm7 A7 D Am7 Am9 D Am7 Am9 D 
        She just didn't know,    I would really go.

flyinglibra51
God Bless Glen Travis Campbell 

End Of Me Tabs – A Day To Remember Vsion 4

 Intro-Verse (Clean Guitar)
E----------------------------------------------------------------------------------------------------
B--3-----3-------------------------------------------------------------------------------------------
G----4-2---4--2---2-2----1---2-1---1---2-1-----------------------------------------------------------
D---------------4-----4----2-----2---2-----2---------------------------------------------------------
A--2-------------------------------------------------------------------------------------------------
E-------------2----------0---------------------------------------------------------------------------(6x)



Chorus (1st Guitar)
E----------------------------------------------------------------------------------------------------
B----------------------------------------------------------------------------------------------------
G----------------------------------------------------------------------------------------------------
D--4444--4444--2222----------------------------------------------------------------------------------
A--2222--4444--2222----------------------------------------------------------------------------------
E--2222--2222--0000----------------------------------------------------------------------------------(3x)


Chorus (2nd Guitar)
E-------------------------------------------------------------------------------------------------------
B-------------------------------------------------------------------------------------------------------
G--16-16-14-14-13-14/14---------------------------------------------------------------------------------
D-------------------------------------------------------------------------------------------------------
A--14-14-12-12-11-11/12---------------------------------------------------------------------------------
E-------------------------------------------------------------------------------------------------------(3x)




Oh, You'll be the end of me...(2nd Verse) (1st guitar) Clean Guitar
E----------------------------------------------------------------------------------------------------
B--3-----3-------------------------------------------------------------------------------------------
G----4-2---4--2---2-2----1---2-1---1---2-1-----------------------------------------------------------
D---------------4-----4----2-----2---2-----2---------------------------------------------------------
A--2-------------------------------------------------------------------------------------------------
E-------------2----------0---------------------------------------------------------------------------



Solo-2nd Verse   (2nd Guitar)   (Delay)                                                              Pre Chorus
E-----------------------------------------------------------------------------------------------------
B-----------------------------------------------------------------------------------------------------
G--6/7-9-7-6-11-9-9-----------------------------------------------------------------------------------     
D-------------------11-9----------------------------------------------------------2-------------------
A---------------------------------------------------------------------------------2--------------------
E---------------------------------------------------------------------------------0--------------------(4x)


Chorus (1st Guitar)
E----------------------------------------------------------------------------------------------------
B----------------------------------------------------------------------------------------------------
G----------------------------------------------------------------------------------------------------
D--4444--4444--2222----------------------------------------------------------------------------------
A--2222--4444--2222----------------------------------------------------------------------------------
E--2222--2222--0000---------------------------------------------------------------------------

You Belong To Me chords – Bryan Adams Vsion 3

 Cracking, simple song but very nice to play.

Capo 2

Intro [G]

 G 
I'll take the night train - I'll take an airplane
     Em D G 
Cuz you belong to me

 G 
I just wanna to say - ain't gonna let you get away
     Em D G 
Cuz you belong to me

              Em D G C 
I only wanna hoooold you
              Em D G C 
I just wanna hoooold you
              Em D G C G 
C'mon let me hoooold you tonight

 G 
You say ya ain't leavin', I can't help dreamin'
 Em D G 
You belong to me

 G 
I'll take the high way, I'll take the low way
     Em D G 
Cuz you belong to me

              Em D G C 
I only wanna hoooold you
              Em D G C 
I just wanna hoooold you
              Em D G C G 
C'mon let me hoooold you tonight

Solo [  Em D G C Em D G C Em D G C G  ]

 G 
I'm not drinkin', gets me thinkin'
 Em D G 
You belong to me

 G 
While you're out there, remember I'm right here
     Em D G 
And you belong to me

              Em D G C 
I only wanna hoooold you
              Em D G C 
I just wanna hoooold you
              Em D G C 
C'mon let me hoooold you
              Em D G C G 
C'mon let me hoooold you
   G 
Tonight

20 Miles To Juarez chords – Bob Wayne

 I like this song a lot, so I hope you enjoy this as much as I do!
-Cheers!



Intro:  G Bm Em D G G 
She's a rambler, She's a gambler, She won't ever let ya have her
          Bm 
She's an angel, She's the devil, She's always on the level 
           Em 
Don't you try to run with her, She'll just leave you in the dirt
          D 
Like she has so many men before

        G 
He's a sinner, he's a splinter, he's colder than the winter
        Bm 
He's a loner, He's a rebel, He's best friends with the devil
           Em 
And He'll walk this earth a lone, He'll never find a home
       D 
He'll find ya, he'll fool ya and he'll go


          G 
I'd been walkin' damn near all day, when he pulled off of the freeway
       Bm 
And I got in without question, cuz I've always known I'd die young
           Em 
There was pistol on his lap, next to a briefcase full of cash
   D 
I knew right then I had met my match


         G 
She was walkin' down that highway, when I pulled up beside her
          Bm 
And even though I didn't know her, I could tell she was a wild one
           Em 
There was blood stains on her clothes, She said her name was Rose
     D 
She shut the door, I hit the gas


Solo


   G 
I asked her where she's goin', She said she didn't know
           Bm 
So I kept drivin' through the night, and no one said a word more
     Em 
And then I pulled her close, touched the blood stains on her clothes
        D 
I said Mexico? She nodded yes


    G 
We drove all through the night then, I woke up to sirens
     Bm 
And shattered glass all on the dash, and he put that pistol in my hand
      Em 
Said woman "shoot to kill, you know they surely will."
     D 
I said hit the border baby, I'll do the rest



         G 
We were shootin, We were swervin', and up ahead there was a curve
            Bm 
And we was goin way too fast, We let off the gas
          Em 
But that copper broke too slow, flew off the side of the road
           D 
Next to a road sign said Juarez 20 miles


Solo


    G 
We pulled into socorro, A small town across the border
        Bm 
And we got out, laughed out loud, Celebration was in order
       Em 
So we stepped inside a bar, had a toast under the stars
    D 
To long hauls and closed calls


    G 
We drank all through the night, tellin' stories neath the moon light
       Bm 
And I looked at him and he looked at me and neither us believed in destiny 
       Em 
So he took that case of cash, he split it right in half
   D 
I took my share and walked away


         G 
She's a rambler, She's a gambler, She won't ever let ya have her
        Bm 
He's a sinner, he's splinter, He's colder then the winter
       Em 
Don't try to run with her, She'll just leave you in the dirt
       D 
He'll find ya, he'll fool ya and he'll go 

Hell Have To Stay chords – Skeeter Davis

 C F C 
I am glad you've finally called me on the phone 

                                        G7 
I've been waiting here tonight but not alone
 
               C C7 F 
You broke the date that we had made just yesterday 

             C G7 C G7 
Now there's someone else who's here he'll have to stay
 

        C F C 
I have found another love I know is true 

                                         G7 
And he holds me much more tenderly than you 

        C C7 F 
Loving you's not worth the price I have to pay 

         C G7 C 
Someone else is in your place he'll have to stay 


        F 
Once I loved you with all my heart 

     C 
But now I must say no 

     F 
You broke my heart too many times 

    C G7 
So now you'll have to go 


       C F C 
I can hear the jukebox playing soft and low 

                                          G7 
And you're out again with someone else I know
 
             C C7 F 
My love was blind I'm not your kind that's all I'll say 

            C G7 C 
So you can hang up I'm in his arms he'll have to stay 


        C F C 
I have found another love I know is true
 
                                         G7 
And he holds me much more tenderly than you 

        C C7 F 
Loving you's not worth the price I have to pay 

         C G7 C 
Someone else is in your place he'll have to stay

New To You chords – Matt York

 E A B E A B C#m E C#m E A B B A B B 


Gonna fall down again from end to end til I'm new to you.

 E 

Til I'm new to you.


 E A B E A B B B5/A B5/G B5/F# E A B   

I know all there is about crying over you.

 E A B    

I know the things that you do aren't new to you.

 C#m E 

I might be wrong but probably not.

 C#m E      

I can't be sold cuz I've been bought.

 C#m A B E A B   

I figure there's a chance that I'll fall down on the ground.

 E A B    

I feel like you might swim but me I'd probably drowned.

 C#m E 

I might be wrong but probably not.

 C#m E      

I can't be sold cuz I've been bought.

 C#m A B      

Gonna fall down again from end to end til I'm new to you.


 E A B 

and there won't be nothing about crying no more.

 E A B 

and there won't be nothing about lying about you.



 C#m E C#m E A B B A B B B B5/A B5/G B5/F# E A B   

I know all there is about crying over you.

 E A B    

I know the things that you do aren't new to you.

 C#m E 

Gonna fall down into a hole, 

 C#m E      

Gonna lay down do what I'm told


 C#m A B      

Gonna fall down again from end to end 

So I'm new to you


 E A B 

and there won't be nothing about crying no more.

 E A B 

and there won't be nothing about lying about you.









Lets Go To The Beach chords – Matt York

 Intro

G (with an occasional slide up to a B Flat

 G 
I don't know but I've been told that watching TV can make you old and I don't wanna be old.

 Em 

Lets go to the beach, lets go to the beach Lets go to the beach, lets go to the beach

 G  

I've been doing some thinking, yeah mixed between the drinking about moving away baby.

 Em 

Whatta say babe! me you and the beach.


 G G Em  

Honey when we get ourselves on down there to Cal-I-Forn-I-A 

 G G Em 

I'm gonna get me some of those muscles that you say that you crave.



 G G Em 

Not the clam kind, no the man kind 

 G G D C 

Oh honey I'd do that for you.

Guitar Solo:

 G Em G G 

I've been thinking west coast, maybe doing some singing and maybe some soaps, maybe both.

 Em 

I'd be singing songs like a modern Jack Wagner, singing songs like a modern Jack Wagner

 G G G 

I don't know about money, but honey I ain't got me none, but if I'm gonna be broke well I might as well be

                             Em 

Broken down here under the sun, under the sun babe!


 G  

Meet me at the beach


 D C G    

Oh honey you know it's true

 D C G 

You know I'd do it for you




















Summoned To Succumb Tabs – Cauldron

 Tune: C (down 2 step)

Intro:

PM----------------------------
C|----------------------------|
G|----------------------------|
Eb|---------------------------|
Bb|-2--2--2--2--2--2--2--2----|
F|--0--0--0--0--0--0--0--0----|
C|----------------------------|

PM----------------------------
C|----------------------------|
G|----------------------------|
Eb|---------------------------|
Bb|-------------5--5----------|
F|--3--3--3--3--3--3--5--5----|
C|--1--1--1--1--------3--3----|

PM----------------------------
C|----------------------------|
G|----------------------------|
Eb|---------------------------|
Bb|---------------------------|
F|--3--3--3--3--3--3--3--3----|
C|--1--1--1--1--1--1--1--1----|

PM----------------------------
C|----------------------------|
G|----------------------------|
Eb|---------------------------|
Bb|---------------------------|
F|--2--2--2--2--5--5--5--5----|
C|--0--0--0--0--3--3--3--3----|

PM----------------------------
C|----------------------------|
G|----------------------------|
Eb|---------------------------|
Bb|-2--2--2--2--2--2--2--2----|
F|--0--0--0--0--0--0--0--0----|
C|----------------------------|

PM----------------------------
C|----------------------------|
G|----------------------------|
Eb|---------------------------|
Bb|-------------5--5----------|
F|--3--3--3--3--3--3--5--5----|
C|--1--1--1--1--------3--3----|

PM----------------------------
C|----------------------------|
G|----------------------------|
Eb|---------------------------|
Bb|-7--7--7--7--7--7--7--7----|
F|--5--5--5--5--5--5--5--5----|
C|----------------------------|

PM----------------------------
C|----------------------------|
G|----------------------------|
Eb|---------------------------|
Bb|-5--5--5--5----------------|
F|--3--3--3--3--5--5--5--5----|
C|--------------3--3--3--3----|

harmonic thing:

  PM------------------------------------
C|------------------------------------|
G|----------10------12--10------13----|
Eb|-----12------12----------12--------|
Bb|-15--------------------------------|
F|------------------------------------|
C|------------------------------------|

  PM------------------------------------
C|------------------------------------|
G|--(13)--12----10------12----13------|
Eb|-----------------12----------------|
Bb|-----------------------------------|
F|------------------------------------|
C|------------------------------------|

PM------------------------------------
C|------------------------------------|
G|----------10------12--10------13----|
Eb|-----12------12----------12--------|
Bb|-15--------------------------------|
F|------------------------------------|
C|------------------------------------|

  PM--------------------------------------
C|--------------------------------------|
G|--(13)--12----10--13--12--12-13-12----|
Eb|----------------------------------14-|
Bb|-------------------------------------|
F|--------------------------------------|
C|--------------------------------------|
                      ~end is not 100% correct, sorry~



RIFF

   PM----       PM      PM PM       PM
C|----------------------------------------------|  
G|----------------------------------------------|  
Eb|-------5-------4------------7--------5-------| 
Bb|-------7-------5------------9--------7-------|  
F|--0--0-------0---------0--0--------0----------|  
C|----------------------------------------------|  
   
   PM------------
C|------------------------------------------------|
G|------------------------------------------------|
Eb|----------------9--7-----10----9-----9---------|
Bb|---------------10--9-----12----10----10--------|
F|--0--0--0--0--0---------------------------------|
C|------------------------------------------------|

3x, then, this:


   PM----       PM      PM PM       PM
C|----------------------------------------------|  
G|----------------------------------------------|  
Eb|-------5-------4------------7----------------| 
Bb|-------7-------5------------9--------10------|