Tag: together

Broken Together chords – Casting Crowns V4

 Broken Together
Casting Crowns
Capo 1

Intro:
 E D A/E E D A/E E 

Verse 1:
              D A/E E 
What do you think about when you look at me
              D A/E E 
I know were not the fairytale you dreamed we'd be
             G A/E E 
You wore the veil, you walked the aisle, you took my hand
                    D A/E 
And we dove into a mystery

 E D A/E E 

Verse 2:
       D A/E E 
How I wish we could go back to simpler times
                D A/E E 
Before all our scars and all our secrets were in the light
              G A/E E 
Now on this hallowed ground, we've drawn the battle lines
                 D A/E 
Will we make it through the night

Pre Chorus:
 G F#m G 
It's going to take much more than promises this time
                         A/E 
Only God can change our minds

Chorus:
       E B/E 
Maybe you and I were never meant to be complete
                  D A/E       
Could we just be broken together
 E B/E 
If you can bring your shattered dreams and I'll bring mine
                        D A/E             
Could healing still be spoken and save us
 F#m G#m A/E E   
The only way well last forever is broken together

 E D A/E E D A/E E 

Verse 3:
        D A/E E 
How it must have been so lonely by my side
                  D A/E E 
We were building kingdoms and chasing dreams and left love behind
             G A/E E 
I'm praying God will help our broken hearts align
                   D A/E 
And we won't give up the fight

Pre Chorus:
 G F#m G 
It's going to take much more than promises this time
                         A/E 
Only God can change our minds

Chorus:
       E B/E 
Maybe you and I were never meant to be complete
                  D A/E       
Could we just be broken together
 E B/E 
If you can bring your shattered dreams and I'll bring mine
                        D A/E             
Could healing still be spoken and save us
 F#m G#m A/E F#m   
The only way well last forever is broken together

Interlude:
 F#m A/E E F#m A/E E D A/E F#m E 

Chorus:
       E B/E 
Maybe you and I were never meant to be complete
                  D A/E       
Could we just be broken together
 E B/E 
If you can bring your shattered dreams and I'll bring mine
                        D A/E             
Could healing still be spoken and save us
 F#m G#m A/E E   
The only way well last forever is broken together

Outro:
 E D A/E E D A/E

So Much Love To Give chords – Together

 ----------------------------------------------------------------------
TOGETHER - SO MUCH LOVE TO GIVE
----------------------------------------------------------------------

Note: The original song is in a key that is halfway between F# and G.
I put this one in the key of G to make it easier

Chords: G, D, Bm, Asus4

THERE IS ONLY ONE LINE IN THE SONG.
It repeats for 11 minutes and the intensity (volume, presence of drums, 
sidechain compression, etc) waxes and wanes.
YouTube link: https://www.youtube.com/watch?v=z7Gg0RdEWQk



           G D Bm Asus4 
I've got so much love to give.                   





Note that the rhythm is a little tricky.  "I've got so" is a pickup measure and the 
repeating happens over tied bars.  All the chords except for Bm occur on the upbeat.

Lost Together chords – Blue Rodeo V2

 Blue Rodeo - Lost Together

Intro   G D/F#  | Em D    | G D/F#  | Em      ||


Verse 1
 G D/F# Em D G D/F# Em 
Strange and beautiful are the stars tonight that dance around your head
 G D/F# Em D G D/F# Em           
In your eyes I see that perfect world, I hope that doesn't sound too weird

 C D G 
 And I want all the world to know
 C D Em               D*
 That your love's all I need all that I need

D*
-2--2-3--3-2--2-3--2-|
--3----3----3---3--3-|
---2----2----2--2--2-|
----------------0--0-|
---------------------|
---------------------|


Chorus
              G D/F# Em C              D*
 And if we're lost    then we are lost together
                G D/F# Em C              D*
 Yeah, if we're lost,      we are lost together



Verse 2
 G D/F# Em D G D/F# Em 
 I stand before this faceless crowd; I wonder why I bother
 G D/F# Em D G D/F# Em 
 So much controlled by so few, stumbling from one disaster to another

  C D G 
 I've heard it all so many times before
 C D Em                D*
 It's all a dream to me now, a dream to me now


Chorus
              G D/F# Em C              D*
 And if we're lost    then we are lost together
                G D/F# Em C              D*
 Yeah, if we're lost,      we are lost together


Interlude   C      | D G  | C D   | Em      | D Cadd9  | G/B D/A  || G      




Verse 3
 G D/F# Em D G D/F# Em 
 In the silence of this whispered night I listen only to your breath
 G D/F# Em D G D/F# Em 
 And in that second of a shooting star somehow it all makes sense

 C D G 
 And I want all the world to know
 C D Em               D*
 That your love's all I need all that I need


Chorus
              G D/F# Em C              D*
 And if we're lost    then we are lost together
                G D/F# Em C              D*
 Yeah, if we're lost,      we are lost together


Interlude    G D/F#  | Em C   |D*    |     ||x2


Chorus
                G D/F# Em C              D*
 Yeah, if we're lost,   then we are lost together
                G D/F# Em C              D*
 Yeah, if we're lost,   then we are lost together, together, together

   

Outro   G D/F#  | Em D   | G D/F#  | Em      | G D/F#  | Em D   | G   D/F@  | Em

Stay Together chords – Madi Diaz

 Capo 1

 E 
Losing all this time
Gave it up now 
I’ve waited all my life
                                F#m A 
How did you know where to find me
 E 
I prove myself to you
Over and over
Promise I’ll be true
                         F#m     
Believe me when i say it
            A 
Because I need to know that it's not just me
 F#m A 
Say it out loud I’ll be right here listening 

               E 
I can see it all
                         A 
The longer we stay together
                         E 
The mountains start to fall
                          A 
As long as we stay together
               E 
I can see it all


Wake up every day
Life isn't easy
We live it anyway
We break through together

On the other side
I was alone until you came and walked into my life
With you it all got better

Tell me so I can hear it's not just me
Say it out loud I’ll be right here listening 

I can see it all
The longer we stay together
The mountains start to fall
As long as we stay together
I can see it all
As long as we stay together
As long as we stay together

                    F#m 
When it feels so right
               A 
It’s always worth the fight
                   F#m 
And it feels so right
               A 
I know it's worth the fight
                   F#m 
When it feels so right
                   A 
And it feels so right
         F#m 
So right
                     A 
Yeah, it feels so right

I can see it all
The longer we stay together
The mountains start to fall
As long as we stay together
I can see it all
As long as we stay together
As long as we stay together

Were All In This Together chords – Sam Roberts

   Ok so this is my first time submitting anything so bare with me here.
This is an acoustic version of the song that i saw on youtube there are two variations 
of the A Chord,
I'm not sure what its actually called so im going to call it "A2" Any other A chord is
just a regular barred Amaj
theres also an E chord with a shape like the A2.. all other chords are normal bar chords
..enjoy and let me know what you think

Peace! , Chris :)_

 A2 : 5-x-7-x-x-x-|
E: 0-7-x-9-x-x--|

Riff:
     E|-----------------|
     B|-----------------|
     G|-----------------|
     D|-----------------|
     A|-----5-7---------|
     E|---7-----5-7-----|



 Bm A2 E  X2

              Bm A2 E 
It is such a drag, you're dressed in rags, everybody waving these faded flags,
 Bm A2 E 
tongue tied a fire inside, caught like a deer in the headlights.
 Bm A2 E 
Mine, mine, it isn't a lot,  so why try to take more than I got,
 Bm A2 E 
more, more, we only want more, it's not what we came for, it's not what were paid for.

 G D A          Riff                          Bm    Riff                   Bm 
We're all in this together, so keep moving don't stop,        keep moving don't stop
 G D A          Riff                          Bm    Riff
We're all in this together, so keep moving don't stop,        keep moving just go, go, go.

 Bm A2 E  X2

               Bm A2 E 
Every night I free fall into a dream, mirrored halls in the chrome machine,
 Bm A2 E 
a phenomenon that goes on and on, saying it right but you're doing it wrong.
 Bm A2 E 
Slow down you're going too fast now, a delicate dance take your foot off the gas now,
 Bm A2 E 
don't try making it last now, sooner later you're a thing of the past.


 G D A          Riff                          Bm    Riff                   Bm 
We're all in this together, so keep moving don't stop,        keep moving don't stop
 G D A          Riff                          Bm    Riff                   Bm 
We're all in this together, so keep moving don't stop,        keep moving don't stop
 G Em 
We may never be the same again, we may never be the same again,
Riff                       Bm    Riff                    Bm 
keep moving don't stop,        keep moving don't stop,
 G Em 
we may never be the same again, we may never be the same again
Riff                       Bm     Riff              A2 E 
keep moving don't stop,         keep moving just go, go, go.

 Bm A2 E  X2

(Muting)....
We are we are the angry apes, we don't want to look at no empty plates.
We are we are the fire brigade, all we want to do is set the record straight.
We are we are the first degree, we're the thief, we're the judge, we're the jury.
We are we are the angry apes shake the fruit from the vine till there's nothing to take now.

 Bm A2 E  X2

        Bm A2 E 
It's a phenomenon that goes on and on, saying it right but you're doing it wrong,
 Bm A2 E 
tongue tied a fire inside, caught like a deer in the headlights.
 Bm A2 E</spa

We Belong Together Tabs by Ritchie Valens V5

   You're mine     and we belong        together         Yes, we belong
6|---------------|-------------------|----------------|--------------------|
5|---------------|-------------------|----------------|--------------------|
4|-17-17---------|--15-17-19-17------|--15-17-14------|--15-17-19-17-------|
3|---------------|-------------------|----------------|--------------------|
2|---------------|-------------------|----------------|--------------------|
1|---------------|-------------------|----------------|--------------------|

  together            for                 eternity      You're mine
6|---------------|-------------------|----------------|--------------------|
5|---------------|-------------------|----------------|--------------------|
4|-15-17-14------|--10-7-------------|----------------|--17-17-------------|
3|---------------|-------------------|--8-7-7---------|--------------------|
2|---------------|-------------------|--8-------------|--------------------|
1|---------------|-------------------|----------------|--------------------|

  your lips         belong               to me          Yes, they
6|---------------|-------------------|----------------|--------------------|
5|---------------|-------------------|----------------|--------------------|
4|-15-17---------|--19-17------------|--15-17-14------|--15-17-------------|
3|---------------|-------------------|----------------|--------------------|
2|---------------|-------------------|----------------|--------------------|
1|---------------|-------------------|----------------|--------------------|

  belong to        only me             for              eternity
6|---------------|-------------------|----------------|--------------------|
5|---------------|-------------------|----------------|--------------------|
4|-19-17-15------|--17-14-14---------|--10-7----------|--------------------|
3|---------------|-------------------|----------------|--8-7-7-------------|
2|---------------|-------------------|----------------|--8-----------------|
1|---------------|-------------------|----------------|--------------------|

  You're mine,     my baby             and you'll       always be
6|-5-9-----------|--9-5-7-8-8--------|--9-7-----------|--9-9-9-7-----------|
5|---------------|-------------------|----------------|--------------------|
4|---------------|-------------------|----------------|--------------------|
3|---------------|-------------------|----------------|--------------------|
2|---------------|-------------------|----------------|--------------------|
1|---------------|-------------------|----------------|--------------------|


  I swear by       everything          I own           You'll always,
6|-7-9-9---------|--5-7-8------------|--8-8-----------|--9-12-9------------|
5|---------------|-------------------|----------------|--------------------|
4|---------------|-------------------|----------------|--------------------|
3|---------------|-------------------|----------------|--------------------|
2|---------------|-------------------|----------------|--------------------|
1|---------------|-------------------|----------------|--------------------|

  always           be mine            You're mine,      and we belong
6|-12-9----------|--9-11-------------|----------------|--------------------|
5|---------------|-------------------|----------------|--------------------|
4|---------------|-------------------|--17-17---------|--15-17-19-17-------|
3|---------------|-------------------|----------------|--------------------|
2|---------------|-------------------|----------------|--------------------|
1|---------------|-------------------|----------------|--------------------|

  together         Yes, we belong      together         for eternity
6|---------------|-------------------|----------------|--------------------|
5|---------------|-------------------|----------------|--------------

Come Together chords – Sons Of The Sea

 
Intro:  Em Em                            
You float into the room, a ruffled feather
 C 
 A hint of your perfume is a comely tether
 Am 
 Give back my heart you stole
 C 
 Chased down the rabbit hole
 D 
 It’s undebatable…

 Em 
we come together.

CHORUS:
 
 Gm                                           
Baby could we spend a month here tonight?
 Eb 
‘Til we both are painted by morning light
 Cm Eb 
 Whoever made you must’ve had a talent for high design!
 F 
 How in the world did you get to be so fine?


 Em Em 
I’d wait around with you for worse or better
 C 
 But our halcyon days are few, it’s now or never
 Am 
 The writing’s on the wall
 C 
 If I can’t walk I would crawl
 D 
 You rise above them all…
 Em 
we come together.

CHORUS
 
 Gm 
When I think that maybe I’ve seen too much
 Eb 
 You come around and dammit! I’m out of touch.
 Cm Eb 
 Now I see you, and I need you on repeat, all the time
 F 
 How in the world did you get to be so fine?
 Gm 
 Baby could we spend a month here tonight?
 Eb 
‘Til we both are painted by morning light
 Cm Eb 
 Whoever made you must’ve had a talent for high design!
 F 
 How in the world did you get to be so fine?

Bridge/Solo:

 A#m ,  F# ,  D#m ,  A#m ,  G#m 

LAST CHORUS

 C#m 
When I think that maybe I’ve seen too much
 A 
 You come around and dammit! I’m out of touch.

 Gbm A                   
 Now I see you, and I need you on repeat, all the time
 B 
 How in the world did you get to be so fine?


Repeat

End on Verse Chords.  
 

Together Well Ring In The New Year chords – Motion City Soundtrack V4

 First chord chart I've put out in a while.
Capo on 1 to match the key of the song (you can move the capo anywhere else to 
work with your voice)

This song sounds real good fingerpicked to these chords in my opinion.
Here's a transcription of the pattern I usually use for the verse (and fingerings for chords). 
This pattern just repeats until you get to the Emin before the chorus.

    G Gmaj7/B 
|--------3--------3----------|--------2--------2----------|
|-----3--------3--------3----|-----3--------3--------3----|
|--0--------0--------0-------|--0--------0--------0-------|
|----------------------------|----------------------------|
|----------------------------|--2-------------------------|
|--3-------------------------|----------------------------|

   Cadd9 G Cadd9 G 
----------------------------|----------------------------||
--------3--------3----------|--------3--------3----------||
-----0--------0--------0----|-----0--------0--------0----||
----------------------------|----------------------------||
--3-------------------------|--3-------------------------||
-----------3--------3-------|-----------3--------3-------||


 G Gmaj7/B 
   This must be it.
                   Cadd9 G Cadd9 G 
   Welcome to the new year.
 G Gmaj7/B 
   The drinks were consumed,
                     Cadd9 G Cadd9 G 
   the plants were destroyed, and the hors d'oeuvres dismantled.
 G Gmaj7/B 
   I'm not smiling
     Cadd9 G Cadd9 G 
   behind this fake veneer.
          G Gmaj7/B 
   I am often interrupted
                   Cadd9 G Cadd9 G 
   or completely ignored,
        Emin Fmaj7 
   but most of all I'm bored.


 G Cadd9 D          
   I'm trying to find out
   Cadd9 G Cadd9 Fmaj7 
   if my words have any meaning.
 G Cadd9 D Cadd9 
   Lackluster and full of contempt
             G Cadd9 Fmaj7 
   when it always ends the same.
    Emin F 
   Why won't she listen to me?


 G Gmaj7/B 
   Why did I come?
                   Cadd9 G Cadd9 G 
   Oh, why did I come here?
 G Gmaj7/B 
   These humans all suck.
                  Cadd9 G Cadd9 G 
   I'd rather be home feeling violent and lonely.
 G Gmaj7/B Cadd9 G Cadd9 G     
   I'm not trying to sound so insincere,
            G Gmaj7/B 
   but the postcard that's taped to the freezer reads:
                   Cadd9 G Cadd9 G 
   "Wish you were here."
          Emin Fmaj7 
   How I wish I could disappear.


 G Cadd9 D    
   I'm trying to find out
   Cadd9 G Cadd9 Fmaj7 
   if my words have any meaning.
 G Cadd9 D Cadd9 
   Lackluster and full of contempt
            G Cadd9 Fmaj7 
   when it always ends the same.

 G Cadd9 D Cadd9  
   Heads up Damage Control,
              G Cadd9 Fmaj7 
   ther

If We Go Down We Will Go Together chords – Tim Vantol

 Tim vantol - If We Go Down, We Will Go Together

Standard tuning
Capo on fourth Fret


And if we go down, we ll go together.
And if you would fall, I would pick you up.
And one day it all gets better.
If we go, we ll go together!

 G G Em 
We will build a mountain, out of desert sand.
                 Am D 
Where the headwind blows, the peak to begin.
                 G Em 
Where the vultures are circling, waiting for us to drop.
                 Am D 
We never spoke about a draw, never agreed on a stop.
 
 G Em 
And if we go down, we ll go together.
                 C D 
And if you would fall, I would pick you up.
 G Em 
And one day it all gets better.
 C G 
If we go, we ll go together!
 
                           G Em 
We won t reach for the sky, cause we re stuck on this ground.
                 Am D 
I m heading up north, while you stay down south, east, west
it depends where we go.
         G Em 
And I m counting down the hours, while you try to forget the time.
         A D 
And for me it s a lifeline poetry, for you it s an endless rhyme.
 
                 G Em 
And if we go down, we ll go together.
                 C D 
And if you would fall, I would pick you up.
           G Em 
And one day it all gets better.
           C G 
If we go, we ll go together!

Solo
 G Em Am D 



And if we go down, we ll go together.
And if you would fall, I would pick you up.
         G Em 
And one day it all gets better.
         C D 
And if we go, and if we go, and when we go
                 G 
we ll go together!

Together Tabs by The Xx

 This entire song is played softly


This is quietly played at the beginning(Not sure how many times you play it)
e|----------------|
B|----------------|
G|----------------|
D|--11(x16)-------|
A|----------------|
E|----------------|

Then this comes in right after
e|----------------------------------| 
B|----------------------------------| 
G|----------------------------------| 
D|-14(x16)\13(x16)/14(x16)/18(x16)--| 
A|----------------------------------|
E|----------------------------------|

Verse "I know to be there. When and where, I'll be there..."
e|------------------------------------------------------------------------|
B|------------------------------------------------------------------------|
G|------------------------------------------------------------------------|
D|-11(x16)/(14(x16)\13(x16)/14(x16)/18(x32)/19(x16)/21(x8)\18(x8)\14(x16)-|
A|------------------------------------------------------------------------|
E|------------------------------------------------------------------------|
(x1)

Then after the final "Together, to be."
e|------------------------------------------------------------------------|
B|------------------------------------------------------------------------|
G|------------------------------------------------------------------------|
D|11-11-11/13-13-13-13/14-14-14/18----11-11-11/13-13-13-13/14-14-14/19\18-|
A|------------------------------------------------------------------------|
E|------------------------------------------------------------------------|

Repeat Verse "You said you don't have to speak. I can hear you..." (x1)

Then silent

again after the final "Together, to be."
e|------------------------------------------------------------------------|
B|------------------------------------------------------------------------|
G|------------------------------------------------------------------------|
D|11-11-11/13-13-13-13/14-14-14/18----11-11-11/13-13-13-13/14-14-14/19\18-|
A|------------------------------------------------------------------------|
E|------------------------------------------------------------------------|

Then there`s no guitar for the rest of the song. It`s violins. 

 so sorry if it`s crappy.



| /  slide up
| \  slide down
| h  hammer-on
| p  pull-off
| ~  vibrato
| +  harmonic
| x  Mute note

So Good Together chords – Andy Kim

 So Good Together:Andy Kim.
#36 on BB Hot 100 on STEED Records
in 1969.

INTRO:  A A E A E 
Baby, we're good together..yes, we're so good together.

#1.
 A D 
I know it happening but I can't believe it.
                  E A 
I just love this feeling that's going through me.
 A D 
When you hold me, baby, I'm all on fire.
                E A 
It's a kind of magic, what you're doing to me.

#2.
 A D A 
I just want to tell you, how good you make me feel.
              E D A 
If you got a life time to spare, baby, I will.
 A D       
If I could only put myself inside you..you could see through 
    E A 
my eyes and feel what I'm feeling.
 A D E 
Then you might just start to understand, why my head is flying 
                A 
and my head is reeling.

#3.
 A D A 
I just want to tell you, how good you make me feel.
              E D A 
If you got a life time to spare, baby, I will.
 A E A E 
Baby, we're good together..yes, we're so good together.
 A E D 
So, if you got a life time to spare..whoaa, (come on, baby,
                                             A 
na-na-na-na-na)..come on, baby, na-na-na-na-na.


INTERLUDE:  A .. Am A 

OUTRO:
 A D A 
I just want to tell you, how good you make me feel.
              E D A 
If you got a life time to spare, baby, I will.
 A E A E A 
Baby, we're good together..yes, we're so good together..(Fade.)


A sixties smash from Kraziekhat.

Stand Up Together intro Tabs by Angry Bird

 intro : D major
e ---------------------------------|
b ---------------------------------|
g ---------------------------------|
d -6-79--6-79--9-1112---9-1112-----|
a -4-57--4-57--7--910----7-910-----|
E ---------------------------------|

e ------------------------------|
b ------------------------------|
g ------------------------------|
d -77--77-7p0-5p0-4p0-2h4-------|
a -55--55-----------------------|
E ------------------------------|

e ---------------------------------|
b ---------------------------------|
g ---------------------------------|
d -77--77-7p0-5p0-4p0-5h7----------|
a -55--55--------------------------|
E ---------------------------------|

e -------------------------------|
b -------------------------------|
g -------------------------------|
d -77--77-7p0-5p0-7~~~-----------|
a -55--55------------------------|
E -------------------------------|

Better Together Acoustic chords – Fifth Harmony

 -same chords throughout the whole song
-Capo on 4th fret for the accurate pitch
-Acoustic version




     G 
When we were together 

 Cadd9 
We were just strangers 


I was just playin' around 

       Em 
So I didn't wanna work it out 

           Cadd9 
Yeah, I didn't wanna work it out 

       G 
Thought something was missin' 


We were too different 

 Cadd9 
Baby I'm looking back now 

    Em 
I really should've worked it out 

          Cadd9 
Yeah, I really should've worked it out 



Because now that you're gone and I sleep alone 


I can't help it, I want you back, 'cause I 

 
Boy I miss you 


Said I really do 


Boy I miss you 


You don't understand that we're better together 


Boy I miss you 


Said I really, really do 


Boy I miss you 


You don't understand that we're better together 


We Betta x5 


You know that we're betta together 


We Betta x5


You know that we're betta together 

Better Together chords – Fifth Harmony V3

 NO CAPO!
THIS IS MY FIRST TAB OMG PLEASE RATE IT!
ENJOY! :)


      G 
When we were together 
 D 
We were just strangers 
 Em Cadd9 
I was just playing around 
       G D      
So I didn't wanna work it out 
          Em Cadd9 
Nah, I didn't wanna work it out 

        G 
Got something else missing 
 D 
We were too different 
 Em Cadd9  
Baby I've been looking back now 
     G D  
I really should've worked it out 
           Em Cadd9 
Yeah, I really should've worked it out 

      G D Em 
Because now that you're gone and I sleep alone 
                Cadd9 G 
I can't help it, I want you back, 'cause I 



 D Em 
Boy I miss you 
  Cadd9 G 
Said I really do 
 D              
Boy I miss you
 Em Cadd9 G 
You don't understand that we're better together 
 D Em 
Boy I miss you 
  Cadd9 G 
Said I really, really do 
 D 
Boy I miss you 
 Em Cadd9 
You don't understand that we're better together 
 G 
We're better 
       D 
We're better 
We're better 
             Em 
We're better 
We're better 
 Cadd9 
You know we're better together 
 G 
We're better 
       D 
We're better 
We're better 
             Em 
We're better 
We're better 
 Cadd9 
You know we're better together 


 G 
Watching you wake up 
 D 
Thinking I had you 
 Em Cadd9 
I was like I was so dumb 
        G D 
Boy I should've known that you're the one 
         Em Cadd9 
Boy I should've known that you're the one


     G 
So if it's not too late 
 D 
I just wanna know babe
 Em Cadd9 
It's me baby, we could still run 
            G D 
Because I finally know that you're the one 
          Em Cadd9 
Yeah, I really know that you're the one

     G D Em 
Because now that you're gone and I sleep alone 
                Cadd9 G 
I can't help it, I want you back, 'cause I 


 D Em 
Boy I miss you 
  Cadd9 G 
Said I really do 
 D              
Boy I miss you
 Em Cadd9 G 
You don't understand that we're better together 
 D Em 
Boy I miss you 
  Cadd9 G 
Said I really, really do 
 D 
Boy I miss you 
 Em Cadd9 
You don't understand that we're better together 
 G 
We're better 
       D 
We're better 
We're better 
             Em 
We're better 
We're better 
 Cadd9 
You know we're better together 
 G 
We're better 
       D 
We're better 
We're better 
             Em 
We're better 
We're better 
 Cadd9 
You know we're better together 

 G Cadd9 Em 
 And now that you're gone and I sleep alone 
                  D G 
I can't help it, I want you back, 'cause I 


 G 
We're better 
       D 
We're better 
We're better 
             Em 
We're better 
We're better 
 Cadd9 
You know we're better to