Tag: town

King Of A One Horse Town Chords by Dan Auerbach

[Verse]
Am   F              Dm           G
Everyday is just a little white lie
Am         F        Dm      G
Telling myself I'm gettin' by
Am       F           Dm           G
I just stay in this room and cry
      F             G        Am
The snow it covers up the ground
    F               G     Am
And I can't hear a single sound

[Verse] 
Am                F     Dm            G
I'd turn off the TV and go for a drive
Am                F          Dm          G
But I can't see there's any signs of life
Am        F                 Dm             G
Kept a Christmas tree with blinking lights
           F               G     Am
I coulda made it but I messed around
      F              G     Am
I'm a loser with a rusted crown
  F           Am             Dm        G
Scared if I jump in the ocean I might drown

[Chorus]
 F         G         Am
King of a One Horse Town
         F         G         Am
I'm the King of a One Horse Town
       F                      
And I barely pull my weight around

[Verse]
Am                F         Dm            G
I thought about leaving but I don't know
Am             F     Dm            G
Wouldn't even know anywhere to go
Am              F     Dm            G
Guess I'll stay on desolation row
           F       G     Am
Go get stoned and hang around
                F            G     Am
The beat of my drum is the only sound
          F             Am           Dm         G
I would jump into the ocean but I'm scared I'd drown

[Chorus]
 F         G         Am
King of a One Horse Town
         F         G         Am
I'm the King of a One Horse Town
       F                      
And I barely pull my weight around

[Chorus]
 F         G         Am
King of a One Horse Town
         F         G         Am
I'm the King of a One Horse Town
       F                      
And I barely pull my weight around

King Of A One Horse Town Chords version 2 by Dan Auerbach

[Intro] 
Dm G Em7 G7 (play the Em7 by moving your pinky to the 5th fret of the second string from a normal G bar chord)

[Verse]
Dm                 G               Em7 G7
Everyday is just a little white lie
Dm                 G          Em7 G7
Telling myself I'm gettin' by
Dm                  G            Em7 G7
I just stay in this room and cry
C                  Bm     Am     Dm Em 
The snow it covers up the ground
C                  Bm     Am
And I can't hear a single sound

Dm                      G             Em7 G7
I'd turn off the TV and go for a drive
Dm                          G             Em7 G7
But I can't see there's any signs of life
Dm                         G               
Kept a Christmas tree with blinking lights
C                      Bm     Am     Dm Em
I coulda made it but I messed around
C                  Bm     Am    Dm Em
I'm a loser with a rusted crown
Dm                            Em
Scared if I jump in the ocean I might drown

[Chorus]
C         Bm        Am   Dm Em
King of a One Horse Town
C                 Bm        Am   Dm Em
I'm the King of a One Horse Town 
      F Em   Dm   C  B  A   G
And I barely pull my weight around

[Verse]
Dm                          G            Em7 G7
I thought about leaving but I don't know
Dm                     G          Em7 G7
Wouldn't even know anywhere to go
Dm                      G         Em7 G7
Guess I'll stay on desolation row
       C          Bm      Am   Dm Em
Go get stoned and hang around
               C           Bm   Am     Dm Em
The beat of my drum is the only sound
        Dm                          Em 
I would jump into the ocean but I'm scared I'd drown

[Chorus]
C         Bm        Am    Dm Em
King of a One Horse Town
      C         Bm        Am     Dm Em
I'm a King of a One Horse Town
      C         Bm        Am   Dm Em 
I'm a King of a One Horse Town
      F  Em  Dm   C  B  A   G
And I barely pull my weight around

      C         Bm        Am    Dm Em
I'm a King of a One Horse Town
C         Bm        Am    Dm Em
King of a One Horse Town
      C         Bm        Am    Dm Em
I'm a King of a One Horse Town
      F  Em  Dm   C  B  A   G
And I barely pull my weight around

When Christmas Comes To Town Polar Express Tabs – Misc Christmas

 -------------------------------------------------------------------------------
                             When Christmas Comes To Town - Polar Express
-------------------------------------------------------------------------------
Based off Youtube Song : When Christmas Comes To Town ~ The Polar Express [Lyrics]

Channel: https://www.youtube.com/user/ThePapazeke
BUT IN WRITING!!!

MAKE SURE TO RATE THE TAB AND FOLLOW THE YOUTUBER CHANNEL IF YOU FIND IT HELPFUL!! ENJOY IT <3

Tuning:Standard Tuning 
NO CAPO NEEDED!!

e|------------------|------------------|------------------|------------------|
B|----------------0-|------------------|----------------0-|------------------|
G|----0-----2-------|----0-------------|----0-----2-------|----0-------------|
D|-0-----0-----0----|-0-----0-----0----|-0-----0-----0----|-0-----0-----0----|
A|------------------|----------3-----2-|------------------|----------3-----2-|
E|------------------|------------------|------------------|------------------|
I'm wishing on a star| And trying to believe| That even though it's far| He'll find me Christmas Eve

e|---------------------|---------------------|------------------------------|
B|-0--1--1--1--0--0----|-------0-----0--3----|-0--1--0--------1--0----------|
G|-------------------2-|-0--2-----2--------0-|----------0-----------2--0--0-|
D|---------------------|---------------------|-------------0----------------|
A|---------------------|---------------------|------------------------------|
E|---------------------|---------------------|------------------------------|
I guess that Santa's busy| 'Cuz he never comes around| I think of him when Christmas comes to town

e|------------------|------------------|------------------|------------------|
B|----------------0-|------------------|-------------3--0-|------------------|
G|----0-----2-------|----0-------------|----0-----2-------|----0-------------|
D|-0-----0-----0----|-0-----0-----0----|-0-----0----------|-0-----0-----0----|
A|------------------|----------3-----2-|------------------|----------3-----2-|
E|------------------|------------------|------------------|------------------|
The best time of the year| When everyone comes home| With all this Christmas cheer| It's hard to be alone

e|---------------------|---------------------|------------------------------|
B|-1--1--1--0--0-------|-------0-----0--3----|-0--1--0--------1--0----------|
G|----------------2--2-|-0--2-----2--------0-|----------0-----------2--0--0-|
D|---------------------|---------------------|-------------0----------------|
A|---------------------|---------------------|------------------------------|
E|---------------------|---------------------|------------------------------|
Putting up the Christmas tree| With friends who come around| It's so much fun when Christmas comes to town

e|------------------------|---------------|------------------------|---------------|
B|------------------------|---------------|------------------------|---------------|
G|-0--0--0--3--2--0-------|----------2--0-|-0--0--0--3--2--0-------|----------2--3-|
D|-------------------3--0-|-3--0--3-------|-------------------3--0-|-3--0--3-------|
A|------------------------|---------------|------------------------|---------------|
E|------------------------|---------------|------------------------|---------------|
Presents for the children| Wrapped in red and green| All the things I heard about| But never really seen

e|------------------|---------------------|---------------------|
B|------------------|---------------------|----1--2--2--2--2--3-|
G|-0--0--0--0--2--2-|-0--2--3--2--0--2--3-|-3-------------------|
D|------------------|---------------------|---------------------|
A|------------------|---------------------|---------------------|
E|------------------|---------------------|---------------------|
No one will be sleeping| On the night of Christmas Eve| Hoping Santa's on his way...

INSTRUMENTAL (SINGING IS 

Wrong Side Of Town chords – Hearts At War

    Artist: Hearts at War
                    http://www.heartsatwar.com/
                YT: http://www.youtube.com/user/DookiefiedOfficial
   Song: Wrong Side of Town
                  From album "Nowhere Kids" (2015)
                  


Verse:
           Bb F 
   We had dreams of fame and succes
        Eb Bb F 
   But look at you now, a sickly mess
            Bb F 
   Used to be joke now it's not so cool
           Eb F 
   You're looking like a fool

          Bb F 
   I was there when you wept, stripped off your pride
             Eb Bb F 
   When you crawled in the gutter I was at your side
          Bb F 
   But I can't do this, watch you fall apart
       Eb F 
   It breaks my heart


Chorus:
                  Bb Gm F Eb 
   You're on the wrong side of town (and I can't help you)
    Bb Gm F Eb  
   Wrong side of town (and I can't help you)
    Bb Gm F Eb 
   Wrong side of town (and I can't help you)
    Bb Gm F       
   Wrong side of town


Verse:
         Bb F 
   It's been 6 months still think of you
            Eb Bb F 
   Are you still shooting dope with the same old crew
           Bb F 
   Man, I know you come from a broken home
                 Eb F 
   But you were never alone

        Bb F 
   But some seem bound to burn out quick
         Eb Bb F 
   Live fast, die young, it's the same old shit
           Bb F 
   It was all revolution and teenage dreams
    Eb F 
   Suicidal schemes


Chorus:
                  Bb Gm F Eb 
   You're on the wrong side of town (and I can't help you)
    Bb Gm F Eb  
   Wrong side of town (and I can't help you)
    Bb Gm F Eb 
   Wrong side of town (and I can't help you)
    Bb Gm F       
   Wrong side of town


Bridge:
  Eb Bb F 
   Tell me what you're looking for
  Eb Bb Bb Gm F 
   A purpose or just something to kill the bore
  Eb Bb F 
   Or maybe to go out in flames
  Eb Bb Bb Gm F 
   Misunderstood or pathetically self-proclaimed


Chorus:
                  C Am G F 
   You're on the wrong side of town (and I can't help you)
    C Am G F  
   Wrong side of town (and I can't help you)
    C Am G F 
   Wrong side of town (and I can't help you)
    C Am G       
   Wrong side of town

The Streets Of Your Town chords – Kathy Mattea

 Kathy Mattea - The Streets Of Your Town


## NOTE: ~ ~ = Walk-Down from  C  to  D  ##


CAPO: 1st Fret



INTRO:  Em 

There's a red Ford pickup following me
 G C 
Headlights off, too close to see
                 G 
I feel you all around
           C D 
Taking me down
                     Em 
The streets of your town



Sweet magnolias just in bloom
 G C 
Black light decals, quarter moon
                            G 
I thought I heard a howling sound
             C D 
Calling out from
                     Em D 
The streets of your town


CHORUS:
              G C       ~ ~  D 
The pavement swells beneath my feet
                G C       ~ ~  D 
It's a one-way ticket, no retreat
               Em7 D Asus2 
I'm a walking billboard, looking to settle down
            C D 
One of the lost and found
                        Em 
On the streets of your town



Looking at memories from the first time
 G C 
Traces of what I hope to find
                    G 
I am captive, I am bound
            C D 
To keep on walking
                     Em D 
The streets of your town,  oh, oh


CHORUS:
              G C       ~ ~  D 
The pavement swells beneath my feet
                G C       ~ ~  D 
It's a one-way ticket, no retreat
               Em7 D Asus2 
I'm a walking billboard, looking to settle down
            C D 
One of the lost and found
                        Em 
On the streets of your town


INSTRUMENTAL:  Em G C G C D Em C 

BRIDGE:
             G D C 
Love has no reason, it has no mind
           G D      
The heart leads and we follow it blind,  oh, oh


CHORUS:
              G C       ~ ~  D 
The pavement swells beneath my feet
                G C       ~ ~  D 
It's a one-way ticket, no retreat
               Em7 D Asus2 
I'm a walking billboard, looking to settle down
            C D 
One of the lost and found
                        Em D 
On the streets of your town
               Em7 D Asus2 
I'm a walking billboard, looking to settle down
            C D 
One of the lost and found
                        Em   
On the streets of your town

Hmmm, the streets of your town

Dont Take Your Guns To Town chords – Johnny Cash V3

 G 
A young cowboy named Billy Joe

      D7 G 
Grew restless on the farm

        
A boy filled with wanderlust

     D7 G 
Who really meant no harm

    C 
He changed his clothes and shined his boots

 
And combed his dark hair down

         G 
And his mother cried as he walked out

 
       C G 
Don't Take Your Guns To Town son

 C G 
Leave your guns at home Bill

       C G 
Don't Take Your Guns To Town

 
        C G 
Don't Take Your Guns To Town son

 C G 
Leave your guns at home Bill

       C G 
Don't Take Your Guns To Town


                                        D7 G 
He laughed and kissed his mom and said your Billy Joe's a man

                                      D7 G 
I can shoot as quick and straight as anybody can

         C 
But I'd wouldn't shoot without a cause 

                      G 
I'd gun nobody down  but she cried again as he rode away

 
        C G 
Don't Take Your Guns To Town son

 C G 
Leave your guns at home Bill

       C G 
Don't Take Your Guns To Town


                                  D7 G 
He sang a song as on he rode his guns hung at his hips

                              D7 G 
He rode into a cattle town a smile upon his lips

    C 
He stopped and walked into a bar and laid his money down

         G 
But his mother's words echoed again

 
       C G 
Don't Take Your Guns To Town son

 C G 
Leave your guns at home Bill

       C G 
Don't Take Your Guns To Town


                                          D7 G 
He drank his first strong liquor then to calm his shaking hand

                                      D7 G 
And tried to tell himself at last he had become a man

   C 
A dusty cowpoke at his side began to laugh him down

        G 
And he heard again his mother's words

 
        C G 
Don't Take Your Guns To Town son

 C G 
Leave your guns at home Bill

       C G 
Don't Take Your Guns To Town


                                      D7 G 
Bill was raged and Billy Joe reached for his gun to draw

                                         D7 G 
But the stranger drew his gun and fired before he even saw

    C 
As Billy Joe fell to the floor the crowd all gathered around

     G 
And wondered at his final words

A Night On The Town chords – The Dear Hunter

 Key: G


 G Em G Em G Em D  x2



 Em 
I've been misplaced in so many ways
 Bbm Em 
Broken battlegrounds, hiding veils of delicate deceit
     Am 
Yet here I breathe
 Em 
Teeth still gleam from holy water
       C 
While millions of lambs migrate to the slaughter
    B Em Am 
My head in a bag and my hands are bound to my feet
 D 
And voices sing:



 B 
"Were we erased like common thieves?
 Em 
Tossed in a cell to feast with the fleas
 B C 
All because we never had written a word."



             G 
What will I see, tonight in these eyes
     D C              
And what will i know when the morning comes?
 Em D G 
    What will I see, tonight in these eyes
     D C Em D 
And what will I know when the morning comes?



 B Em 
Must we remind of exchanges existing so long ago?
 B 
Would we arrive at agreeable musings
 Em D 
Sentimental or just confusing
    B 
We lost what we had but we took it back
 Am G Em 
Friends in the gutter, enjoy one another
      B C 
Just give yourself to the dust and the dirt where you stand


             G 
What will I see, tonight in these eyes
     D C              
And what will i know when the morning comes?
 Em D G 
    What will I see, tonight in these eyes
     D C              
And what will I know when the morning comes?




     Em D Am 
I'm not who you think I am
               C B 
And even if I thought you'd known
                    Am 
I never would have told you so
     G 
And more alarming
              C A D 
I would have done the very same
            C A D 
Would have stole more than your name
            C A D Am 
Would have cursed and bought the world on your shoulders
              B 
I was in the wrong place

At the right time




     Em D G 
And what's the worst I'd see
                                 C 
By giving myself to the earth below me
     Em D G C 
Not knowing how far I'd fall, by casting away the ordinary
      G D G C 
Just how long can I stay in illusions formed here long before me?
     G D G C 
And how long can I breathe this stolen breath here underneath?




 Em C 
  There's that subtle smile that did me in
 D Em 
She moves...
            C 
An agony reminds where I've been
 D Em 
She breathes
                     C 
"I'd never let this happen again."


 Am Em 
Where's your heart?
 C G 
Mimicking the patriarch
 Am C 
She's naive... 

Pokemon – Lavender Town intro Tabs – Misc Computer Games

 -------------------------------------------------------------------------------
                             Lavender Town Theme
-------------------------------------------------------------------------------
: AnonymousPi

Tuning: Standard

e|----3--7--2-----3--7--2-----3--7--2-----3--7--2--3--3--2--2--3--2--0--7----|
B|-1-----------1-----------1-----------1-----------------------------------2-|
G|---------------------------------------------------------------------------|
D|---------------------------------------------------------------------------|
A|---------------------------------------------------------------------------|
E|---------------------------------------------------------------------------|

e|----3--3--2--2--7--3--2--7--8--8-------------------------------------------|
B|-2-------------------------------------------------------------------------|
G|---------------------------------------------------------------------------|
D|---------------------------------------------------------------------------|
A|---------------------------------------------------------------------------|
E|---------------------------------------------------------------------------|

Two Night Town chords – Jason Aldean V2

 
(Capo on 2)

Intro:   G D A Bm  x2
          G D A D 
I just spent three nights in a two-night town 
  G D A Bm 
Sun's comin' up and I'm just goin' down
        G D A Bm 
Am I ever gonna turn my life around
          G D A D 
I just spent three nights in a two-night town

          G D A D 
It was women, it was sinnin', it was alcohol
            G D A Bm 
It was everything the bible says will make a man fall
         G D A Bm 
And I didn't wanna little lord I wanted it all
          G D A D 
It was women, it was sinnin', it was alcohol

Chorus
         G D 
When am I, ever gonna learn to walk away
            G Bm 
When the chips are down and the cards ain't fallin' my way
        G Bm D A G 
Why do I always gotta stay to long till it's too late

          G D A D 
I just spent three nights in a two-night town 
           G D A Bm 
With a bunch of lost souls just tryin' to get found
           G D A Bm 
Girl I've been a little crazy since you walked out
            G D A D 
So I just spent three nights in a two-night tow

Solo:   G D Bm A  x 2

Chorus
         G D 
When am I, ever gonna learn to walk away
            G Bm 
When the chips are down and the cards ain't fallin' my way
        G Bm D A G 
Why do I always gotta stay to long till it's too late

          G D A D 
I just spent three nights in a two-night town 
  G D A Bm 
Sun's comin' up and I'm just goin' down
   G D A Bm 
Baby, this pain is still hangin' around
                G A D 
I think I'll spend four nights in a two-night town

Live Forever chords – Little Big Town

 Choruses in 4/4, bridge in 5/2 for the most part, everything else in 3/2


Persistent acoustic riff
d|-------0------------------|-------0-------------------|
A|-8---------8-----8---10---|-7---------7-----7---------|
F|-----9-------9------------|-----7-------7-------7-----|
C|---------------9----------|---------------5-------5---|
G|-7---------------7---9----|-5-------------------------|
D|--------------------------|---------------------------|
   1 e + a 2 e + a 3 e +  a   1 e + a 2 e + a 3 e + a
    Dm Dm Edim Cadd9 

d|-------0-----------------|-------0------------/-----|
A|-7---------7-----7---8---|-5---------5-----5--/-----|
F|-----7-------7-----------|-----5-------5------/-----|
C|---------------5---------|---------------5----/-----|
G|-5---------------5---7---|-3------------------/-----|
D|-------------------------|--------------------------|
   1 e + a 2 e + a 3 e + a   1 e + a 2 e + a 3 e + a
    Cadd9 C Dm Bb 

Standard D: tune down a whole step.

ORDER: I V1  C  INT1 V2  C  INT2 V3  C  O


[INTRO] - riff
 Dm Dm Edim  |  Cadd9  |
 Cadd9 C Dm    |  Bb     |
 Dm Dm Edim  |  Cadd9  |
 Cadd9 C Dm    |  Bb     |


[VERSE 1] - riff
     Dm Gm/Bb Dm C/F 
You roll through life like a roll - ing fire
   C/F C/F Dm Bb 
I bring the rain like a thunder - storm
       Dm Gm/Bb Dm C/F 
Yeah, we found peace on the bat - tle - field
    C/F C/F Dm Bb 
It all makes sense in love and war
    C/F C/F Dm Bb 
It all makes sense in love and war


[CHORUS]
 F Bb F/C Bbadd9 
You and me, wild as a willow in a hurricane,
 F Bb Csus 
strong enough to stand in the stormy weather
 F Bb Dm7 Bbadd9 
We might be  crazy enough to make history,
            F Bb Csus 
'cause the world just ain't the same since we got together
           Gm7 C Dm 
And if we don't die young, we might just live forever


[INTERLUDE 1] - riff
(  Dm  )    Dm Edim  |  Cadd9  |
  Cadd9 C Dm    |  Bb     |


[VERSE 2] - riff
           Dm7 Gm/Bb Dm C 
There are Kings and Queens upon    their thrones,
      C C Dm Bb 
that have a love like you and me
 Dm Gm/Bb Dm C 
Kingdoms rise and king - doms fall,
     C C Dm Bb 
but lovers last eternal - ly
 C C Dm Bb 
lovers last eternal - ly


[CHORUS]
 F Bb Dm7 Bbadd9 
You and me,  wild as a willow in a hurricane,
 F Bb Csus 
strong enough to stand in the stormy weather
 F Bb Dm7 Bbadd9 
We might be  crazy enough to make history,
            F Bb Csus 
'cause the world just ain't the same since we got together
           Gm7 C Dm 
And if we don't die young, we might just live forever


[INTERLUDE 2]
(5/2 time)
(  Dm  )  

The Dark Side Of Town chords – The White Buffalo

 The White Buffalo - The Dark Side Of Town


INTRO:  G C G Am   (2x)

     G C G 
I'm headin' to the dark side of town
           C G 
Where the devil gets down
          C Em D G 
Where my money gets lost and found


   C G 
I shuffle my feet
       C G 
And I ain’t too discreet
 C Em D        
Trouble it flags me down
      Em D 
So I head underground


CHORUS:
   G C Em D 
There, there’s nothing that you can say
   G C Em D G 
There’s no need to stand in my way


         C G 
Is this heaven or hell?
              C G 
They’re both gates, just as well
                 C Em D G 
They’re all the same, far as I can tell


      C G 
This body that binds
       C G 
Gonna leave it behind
              C Em D        
See what the devil and me can find
     Em D G 
The gates open wide


CHORUS:
         C Em D 
There’s nothing that you can say
   G C Em D G 
There, there’s no need to stand in my way, hey hey hey hey
             C Em D G 
And there’s nothing that you can say, hey hey
         C Em D      
There’s no need to stand in my way, hey hey


BRIDGE:
        Am C 
In the haze and the highs
                          D C 
Your face comes crashing through my mind
     G 
Oh, what shame
                   D 
I better put you away
         Am C 
What on earth have I become
                 D C G 
I can’t hide forever from the light of day
                 D 
It’s not what I want
                     C 
But it’s always too late

            (pause)

 G C G 
Headin' to the dark side of town
           C G 
Where the devil gets down
          C Em D           
Where my money gets lost and found

Paint The Town Red Tabs – Delirious

 -------------------------------------------------------------------------------
                             PAINT THE TOWN RED - Delirious?
-------------------------------------------------------------------------------

Tuning: Standard

You'll wanna listen to the recording to get the general flow for this one.

Verse
e|-------------------------------------------------------|
B|-------------------------------------------------------|
G|-----------5-5-5-5-5-5-5-5------------5-5-5-5-5-5-5-5--|
D|-6-6--3-3--5-5-5-5-5-5-5-5--6-6--3-3--5-5-5-5-5-5-5-5--|
A|-6-6--3-3--3-3-3-3-3-3-3-3--6-6--3-3--3-3-3-3-3-3-3-3--|
E|-4-4--1-1-------------------4-4--1-1-------------------|

Pre-chorus
e|----------------|
B|----------------|
G|----------------|
D|-7--6--5--4--3--|
A|-7--7--5--4--3--|
E|-5--4--3--2--1--|

Chorus
e|---------------------------------------------------|
B|------------6-6-6-6-6-6----------------------------|
G|-5-5-5-5-5--5-5-5-5-5-5--5-5-5-5-5-----------------|
D|-5-5-5-5-5--3-3-3-3-3-3--5-5-5-5-5--6-6-6-6--3-3-3-| x2
A|-3-3-3-3-3---------------3-3-3-3-3--6-6-6-6--3-3-3-|
E|------------------------------------4-4-4-4--1-1-1-|

Pre-verse/Post-chorus
e|-4-4--1-1-3-3-3-3-3-3-3-3-|
B|-4-4--1-1-5-5-5-5-5-5-5-5-|
G|-5-5--2-2-5-5-5-5-5-5-5-5-|
D|-6-6--3-3-5-5-5-5-5-5-5-5-| x2
A|-6-6--3-3-3-3-3-3-3-3-3-3-|
E|-4-4--1-1-----------------|

Solo
e|-----------------------------------------------------------------------------|
B|-----------------------------------------------------------------------------|
G|-5-8-5-8-8-8-5-8-5-8-5-5-8-5-8-8-8-5-8-5-8-5-5-8-5-8-8-8-5-8-5-8-5-8-11-8-11-|
D|-----------------------------------------------------------------------------|
A|-----------------------------------------------------------------------------|
E|-----------------------------------------------------------------------------|

e|-------------------|
B|-------------------|
G|-11-11-8-11-8-11-8-|
D|-------------------|
A|-------------------|
E|-------------------|

Outro
e|-6--5--4--4--2--1-|
B|-6--5--4--4--2--1-|
G|-7--6--5--5--3--2-|
D|-8--7--6--5--4--3-|
A|-8--7--6--5--4--3-|
E|-6--5--4--3--2--1-|


************************************

| /   slide up
| \   slide down
| h   hammer-on
| p   pull-off
| ~   vibrato
| +   harmonic
| x   Mute note
| b   Bend
| pb  Pre-bend
| br  Bend release
| pbr Pre-bend release
| brb Bend release bend

************************************

O Little Town Of Bethlehem chords – Garth Brooks

 Intro -  D Dmin D7 G Em D/A A7 D D G Em 
O little town of Bethlehem
      D A7 D 
How still we see thee lie
      D/C B7 Em  
Above thy deep and dreamless sleep
      D A7 D 
The silent stars go by
              Em Fdim7 F#7 
Yet in thy dark streets shineth
     Bm G6 F#7 
The everlasting Light
     D Dmin D7 G Em 
The hopes and fears of all the years
     D/A A7 D 
Are met in thee tonight

    D G Em 
Oh holy child of Bethlehem
    D A7 D 
Descend to us we pray
           D/C B7 Em  
Cast out our sins and enter in
    D A7 D 
Be born to us today
            Em Fdim7 F#7 
Oh morning stars together
    Bm G6 F#7 
Proclaim the holy birth
     D Dmin D7 G Em 
And praises sing to God the King
     D/A A7 D 
And Peace to men on earth.

Good People chords – Little Big Town

 NO CAPO 

 G D G D G Em G 
They say you are who you hang with
 G Em G 
It's no coincidence I wanna hang with you
 G C G 
Rise and fall together, travel is better in twos


 G 
Sometimes it feels like a magnet
 G Bm 
The way that crazy always sticks with its own kind
 G C 
 Don't believe in ESP
 C G              
But you can read my mind


[Chorus]
 G D 
Good people know
 D C 
Good people know
 C G D Bm 
Good people


 Bm D 
Good people know
 D C 
Good people know
 C G      
Good people

SOLO:  D G D C G D G G 
A good friend would bail you out of jail
 G C 
But a better one would be handcuffed to you
 C G 
Everyone's a winner when all the winners loose


[Chorus]
 G D 
Good people know
 D C 
Good people know
 C G D Bm 
Good people


 Bm D 
Good people know
 D C 
Good people know
 C G      
Good people


[Bridge]
 G Em C 
They can always spot another one when they're nearby
    Em C 
No matter where you land you're gonna find

[Chorus]
 Em D 
Good people know
 D C 
Good people know
 C G D G 
Good people

 D C G D G Bm 
We're guilty by association
 Bm G D 
Keeping company with ornery company
 D C 
Running round with rogues and rounders
              G 
Cause we believe

[Chorus]+[Bridge]
 C D 
Good people know
 D C 
Good people know
 C G Bm 
Good people

 Bm D 
Good people know
 D C 
Good people know
 C G Bm 
Good people

 Bm Em C 
They can always spot another one when they're nearby
    Em G C 
No matter where you land you're gonna find

[Chorus](x2)
 C D 
Good people know
 D C 
Good people know
 C G D G 
Good people


 G D  
Good people know
 D C 
Good people know
 C G D G 
Good people


 G D  
Good people know
 D C 
Good people know
 C G D G 
Good people

[outro]
 D Bm C G D G

Painkiller chords – Little Big Town

 Any bit of help to make this better will be greatly appreciated it's just the basic chords and
 I know that they are probably more advanced chords but I don't know the names of them so I you
 hear them let me know what they are Thank you
CAPO 6

Intro:  C F G C F G D C F 
Don't need no whiskey
 G 
When I've had a bad day
 C F 
No prescription honey
G                 G-Em
When my skies are gr-ay

 C F 
No poppin' the pills
 G 
No smokin' the thrills

to make me feel okay
 C F 
you go down easy baby
         G 
I could drink you by the case

Chorus:
 C F G 
You're my pa-ai-n-killer
 C F G 
A little dose of you goes a long long way
           C F G 
You're my pa-ain-killer
G              c
Oh you take it awa a a a a a ay
             G 
You take it away

 G C F 
Don't need no fixin'
   G C 
I don't need no therapy
                   F 
Your love drunk kissin'
 G C 
Is my kinda remedy

You're always liftin' the fog
        F G 
You're like the hair of the dog

When I'm feelin' cursed
 C F 
Don't need no doctor honey
 G 
I don't need no nurse

Chorus:
 C F G 
You're my pai-ain-killer
 C F G 
A little dose of you goes a long long way
 F C F G 
You're my pai-ain-killer
                C 
Oh you take it awa a a a a a ay
 F G 
You take it away

 C 
Oh you take it awa a a a a a ay
 F G 
You take it away

 Am G C F G D C F G C                
la la la la la la la
 C- G
Hoo ooO

 C 
La la la la la la la
 F- G
Hoo ooO 


 C                
la la la la la la la
 C- G
Hoo ooO

Spoken: COME ON

 C 
La la la la la la la
 F  -  G 
Ooh oh

 C F G 
You're my one (la la la) pain-killer (ooh ooh)
               C F G 
You're my Midnight (la la la) Thriller (ooh ooh)

               C F G       
Hey you're my pai-ain-killer
 C F G 
A little dose of you goes a long long way
           C F G 
You're my pai-ain-killer
               C-F
Oh you take it away
 F 
You take it away
 C 
Oh you take it away
             C 
You take it away

China Town Tabs – Caparezza

 -------------------------------------------------------------------------------
                             Cover - Caparezza
-------------------------------------------------------------------------------
: Caterina Scopelliti
https://www.facebook.com/caterinascopellitiofficial
Tuning: eBGDAE

intro:  F G E Am Dm C E Am
        F G E Am Dm C E 

e|-5--4-5-7--7-5-7-8--10--10-12-8--7--7-8-5----------------------------------|
B|---------------------------------------------------------------------------|
G|---------------------------------------------------------------------------|
D|---------------------------------------------------------------------------|
A|---------------------------------------------------------------------------|
E|---------------------------------------------------------------------------|

               F
Non è la fede che ha cambiato la mia vita,
                   Dm
ma l'inchiostro,
                                              F
che guida le mie dita, la mia mano, il polso
ancora mi scrivo addosso, amore corrisposto
Dm
     scoppiato di colpo come quando copri Boston
F
     non è la droga a darmi la pelle d'oca ma
Dm
     pensare a Mozart che in mano ha la penna d'oca, la
G                                             
     sullo scrittoio a disegnare quella nota, fa
Em                  G
 la storia, senza disco, né video, né social
F                                                                     
     Valium e Prozac non mi calmano
                     Dm
datemi il calamo, o qualche penna su cui stampano
                             F
il nome di un farmaco, solo l'inchiostro cavalca il mio stato d'animo
  Dm
chiamalo ipotalamo, lo immagino magico
        F
tipo Dynamo. Altro che Freud, un foglio bianco
Dm                                                    G
per volare alto lo marchio come l'ala di un albatro
                             
per la città della china mi metto in viaggio
    Em                                  G
vado in pellegrinaggio, ma non a Santiago
                    F
vado a China Town.

                            G
Vado dagli Appennini alle Ande
E                                 Am
     nello zaino i miei pennini e le carte
Dm                            C 
     dormo nella tenda come uno scout
               E                                Am
scrivo appunti in un diario senza web, layout
          F
China Town.
                        G
Il luogo non è molto distante
E                                  Am
     l'inchiostro scorre al posto del sangue
Dm                                   C
     basta una penna e rido come fa un clown
           E
a volte la felicità costa meno di un pound.

          F
China town, il mio Gange, la mia Terra Santa, la mia Mecca
Dm
     il prodigio che da voce a chi non parla a chi balbetta
F
     una landa lontana, come un amico di penna
Dm
come torniamo bambini, come in un libro di Pennac
Fa
     qui si coltiva la pazienza degli amanuensi
Dm
     l'inchiostro sa quante frasi nascondono i silenzi
G                                               
     d'un tratto esplode come un crepitio di mortaletti
Em                           G   
come i martelletti dell'Olivetti di Montanelli
F
     le canne a punta cariche di nero fumo
  Dm
il vizio, di chi stende il papiro come uno scriba
  F
egizio, questo pezzo lo scrivo ma parla chiaro
           Dm
nell'inchiostro mi confondo tipo caccia al calamaro
F
     sono Colombo in pena, che se la rema
        Dm
nell'attesa di un attracco nell'arena, salto la cena
G                                         
     scende la sera, penna a sfera sulla pergamena,
  Em                              G
ma, non vado per l'America, sono diretto a
          F
China Town.


Vado dagli Appennini alle Ande
E                                 Am
     nello zaino i miei pennini e le carte
Dm                            C 
     dormo nella tenda come uno scout
               E                                Am
scriv

The Wolves – Lets Skate This Town Tabs

 Intro (lead):
E---------------88888888-1010101010101010-1212121212121212------| 
B---------------88888888-1010101010101010-1212121212121212------| 
G---------------------------------------------------------------| 
D---14~~~~------------------------------------------------------| 
A---------------------------------------------------------------| 
E---------------------------------------------------------------| 

intro (rhytm):

E---------------------------------------------------------------| 
B---------------------------------------------------------------| 
G---------------55555555-777777777-99999999---------------------| 
D---------------55555555-777777777-99999999---------------------| 
A---------------33333333-555555555-77777777---------------------| 
E---------------------------------------------------------------| 

verse(lead): 
E--------------12-----------------------------------------------| 
B--------------12-----------------------------------------------| 
G---------------------------------------------------------------| 
D---------------------------------------------------------------| 
A---------------------------------------------------------------| 
E-0-------------------------0-----------------------------------| 

verse(rythm)
E---------------------------------------------------------------| 
B---------------------------------------------------------------| 
G---------------------------------------------------------------| 
D-7/9999-7/9999-7/9999-121212-141414----------------------------| 
A-5/7777-5/7777-5/7777-101010-121212----------------------------| 
E---------------------------------------------------------------| 

solo:
E---------------------------------------------------------------| 
B-----17-15-17-15-17-15-17-15-17-15-17-15-17--------------------| 
G---------------------------------------------------------------| 
D---------------------------------------------------------------| 
A---------------------------------------------------------------| 
E---------------------------------------------------------------| 

bridge:
E-----------------------------------------------------------------------| 
B-----------------------------------------------------------------------| 
G---------------------------------------------------------.-------------| 
D-9-9-9-9-12-9-9-9-9-7--9-9-9-9-12-9-9-9-9-7--9-9-9-9-12-9-9-9-9--7~~~~-| 
A-7-7-7-7-10-7-7-7-7-5--7-7-7-7-10-7-7-7-7-5--7-7-7-7-10-7-7-7-7--5~~~~-| 
E-----------------------------------------------------------------------| 

Dirty Town chords – Mother Mother

 A=5th fret bar
C#=4th fret bar
Bb=6th fret bar

| A A A A   | A A A A  
| A A A A   | A A A A  
| C# C# C# C#  | C# C# C# C#  
| A A A A   | A A Bb Bb 

| A A A A   | A A A A  
| A A A A   | A A A A  
| C# C# C# C#  | C# C# C# C#  
| A A A A   | A A Bb Bb 

| A A A A   | A A A A  
|Don't like living in a dirty town
| A A A A   | A A A A  
|Don't like living in a dirty town
| C# C# C# C#  | C# C# C# C#  
|I Don't like living in a dirty town
| A A A A   | A A Bb Bb 
|Cause a dirty town gets me down

| A A A A   | A A A A  
|I saved up and I bought some land
| A A A A   | A A A A  
|Cause I can't stand living in a dirty town
| C# C# C# C#  | C# C# C# C#  
|Yeah I pinched my pennies and I put em down
| A A A A   | A A Bb Bb 
|And I washed my hands of a dirty town

| A A A A   | A A A A  
|Plant my seeds in the ground
| A A A A   | A A A A  
Yeah I put em down in my new found land
| C# C# C# C#  | C# C# C# C#  
Cause you can't plant seeds in a dirty town
| A A A A   | A A Bb Bb 
No you can't plant seeds in a dirty town

| E E E E  | E E E E 
I choppin' firewood choppin' firewood
| E E E E   | E Bb Bb Bb 
                 Chop chop chop
| A A A A   | A A A A 
Just like a country boy should be chopping wood
| A A A A   | A Bb Bb Bb 
                 I country
| E E E E   | E E E E 
My kindling sticks are the perfect little widt

This Old Ghost Town chords – The Fratellis

 Capo 5th Fret


Intro:
 G G7 G G7 D G C G D G C G D G C 
Come now honey
 G D 
I may be just a fool, but I've got my principles
 G C 
I'm unlucky
 G D 
You may be alive but you're not invincible
 G C 
It's just blindness
 G D 
Kicking up a fuss and it's not for the first time
 G C 
Oh, your highness
 G D Em 
Someone must've told you, you once were a friend of mine

 Em D D/B D Em Em7 
I've never been shy but I've kept my head down
 G G/F# Em 
Oh oh oh
 Em D D/B D Em Em7 
Knowing about enough to get by this old ghost town
 G G/F# Em 
Oh oh oh

 G C G D G C 
Put on your best dress
 G D 
I'll take you dancing under the street lights
 G C 
Oh you're charmless
  G D 
You ain't too pretty but I've seen you tonight
 G C 
It's just kindness
 G D 
I was brought up a way that I won't leave you crying
 G C 
Oh, your highness
 G D 
You ain't too bright but as long as you're trying

 Em D D/B D Em Em7 
I'll do my best to keep my head down
 G G/F# Em 
Oh oh oh
 Em D D/B D Em Em7 
Putting my brains to the test in this old ghost town
 G G/F# Em 
Oh oh oh

 G G7 G G7 D G C G D G C G D G C G D G C G D Em D D/B D Em Em7 
I've never been shy but I've kept my head down
 G G/F# Em 
Oh oh oh
 Em D D/B D Em Em7 
Knowing about enough to get by this old ghost town
 G G/F# Em 
Oh oh oh

 Em D D/B D Em Em7 
I'll do my best to keep my head down
 G G/F# Em 
Oh oh oh
 Em D D/B D Em Em7 
Putting my brains to the test this in old ghost town
 G G/F# Em 
Oh oh oh
 G G/F# Em 
Oh oh oh
 G G/F# Em 
oh oh oh

 D G C G D  (many times)

Rock This Town chords – Brantley Gilbert

 Standard tuning on this one

Intro:  G ,  Cadd9 ,  D  x2

( Em7 ) I'm tired of this ( D ) 9 to 5
( Cadd9 ) 8 hours feeling like over time
And my ( Em7 ) mind's reminding me ( D ), I got a show ( Cadd9 ) tonight
( Em7 ) Getting home, it's al( D )ready 8:30
My ( Cadd9 ) strings are old and man, my clothes are dirty
( Em7 ) And jimmy's always ( D ) late, so man I'm right on ( Cadd9 ) time

( D ) There's a little old college bar right off of ( Em7 ) old 129
Said ( D ) they'd pay me just a little bit of money
To ( Cadd9 ) sing my songs tonight

Chorus:
( G ) It's 10:00, get ready to rock, let's ( Cadd9 ) roll
Give me the beat boys, and free my ( Em7 ) soul
Play it ( D ) all from skynyrd to ( Cadd9 ) Jones
And some of my own
( G ) 5'10 with a suntan and southern (Czadd9) drawl
In the front row singing ( Em7 ) along
Yeah it's ( D ) all about the country ( Cadd9 ) sound
Yeah, we're gonna rock this ( G ) town

( Em7 ) Sweet home to ( D ) brown eyed girl
( Cadd9 ) Trying my best to remember the words
And there's ( Em7 ) always some drunk in the ( D ) back
Screaming out Free ( Cadd9 ) Bird
( Em7 ) Take a break, and ( D ) head to the bar
( Cadd9 ) Shake a couple hands, got me feeling like a star
And I ( Em7 ) know it's the bottle ( D ) talking, but hell I don't ( Cadd9 ) mind

( D ) Ya'll I aint cose to fame
But I ( Em7 ) love to play and sing
( D ) And this may be a honkey tonk bar
But ( Cadd9 ) I'm still living a dream

Chorus again

Intrumental is the intro twice

Chorus again

For the outro, play the intro twice