Tag: track

Polybridge – Track 3 intro Tabs – Misc Computer Games

 -------------------------------------------------------------------------------
                          Track 3 - Polybridge Soundtrack
-------------------------------------------------------------------------------
: Elliot Kempson
 elliotk25

Tuning:EADGBe

e|---------------------------------------------------------------------------|
B|---------------------------12---12h14-------------14-----------------------|
G|--------------9---13---11----------------------13-14---14--13--------------|
D|--------------9--------13-------------14----------14-----------------------|
A|---------9h11----------14-------------14--16-------------------------------|
E|-12--12--------------------------------------------------------------------|


NOTE: I do not own Polybridge or the song, I'm just a fan :)
I don't own the video either, but here it is: https://youtu.be/f4-pitkxPLw
************************************

| /   slide up
| \   slide down
| h   hammer-on
| p   pull-off
| ~   vibrato
| +   harmonic
| x   Mute note
| b   Bend
| pb  Pre-bend
| br  Bend release
| pbr Pre-bend release
| brb Bend release bend

************************************

One Track Heart chords – Elvis Presley

 One Track Heart - Elvis Presley
 Del Bradley  CAPO on 3
____________________________________________________________________
Please don't forget to rate and comment, 
Your feedback would be much appreciated, Thank you :)
____________________________________________________________________

OPTIONAL SUBTLE INTRO    C Am C Am C Am C Am Fmaj7 C C              
 Just like an old grandfather's clock that won't stop run-ning
 C Fmaj7 Am Fmaj7 C C  
Like an old racehorse that just wont ever  quit

 C Fmaj7 Am 
 There'll be no end to loving you
 Am Fmaj7 C Fmaj7 
Nothing can stop  me once I start
 Fmaj7 Am Fmaj7 Em C C 
'Cos I'm a one track mind and a one track heart

 C Fmaj7 Am Fmaj7 C C 
Well I'm as stubborn as a mule I just  won't let up
 C Fmaj7 Am Fmaj7 C C 
Like an old blood-hound Ill hang around your trail

 C Fmaj7 Am                 
 There'll be no end  to loving you
 Am Fmaj7 C Fmaj7 
Don't try to stop  me if you're smart
 Fmaj7 Am Fmaj7 Em C C 
'Cos I'm a one track mind and a one track heart


 C Fmaj7 Dm C Am     
Oooo- eeeee there'll be no turning ba-ck
 Am Fmaj7 D G G 
Oooo- eeeee I'm gonna stay on your track

 C Fmaj7 Am Fmaj7 C C 
Just like a choo-choo train that's gotta keep a-chugging
 C Fmaj7 Am Fmaj7 C C 
You'll find that I'm  the kind who sticks to what  I do

 C Fmaj7 Am 
 There'll be no end to loving you 
 Am Fmaj7 C Fmaj7 
Baby we'll never  be a-part
 Fmaj7 Am Fmaj7 Em C C 
'Cos I'm a one track mind and a one track heart


 C Fmaj7 Am Fmaj7 C C 
Just like a choo-choo train that's gotta keep a-chugging
 C Fmaj7 Am Fmaj7 C C 
You'll find that I'm  the kind who sticks to what  I do-arrrrrgh

 C Fmaj7 Am 
 There'll be no end to loving you 
 Am Fmaj7 C Fmaj7 
Baby we'll never  be a-part

 Fmaj7 Am Fmaj7 Em C Am C Am C Am C                 
'Cos I'm a one track mind and a one track hearrrrrrrrrrrrrrrrrrrrrt   !

Missing Track chords – And One

 http://www.andone.de/

Intro

--5-2-0-0-2-0--- --5-2-0-0-2-0--- --5-2-0-0-2-0--- 3-2-------|
--------------3- --------------3- --------------3- ----3-5-2-|
4--------------- 4--------------- 4--------------- ----------|
---------------- ---------------- ---------------- ----------|
---------------- ---------------- ---------------- ----------|
---------------- ---------------- ---------------- ----------|

Verse:

 Bm ,  A ,  G ,  A 

Chorus:

 G ,  Bm  x2
 G ,  Bm ,  F#m G ,  A ,  Bm

All That I Give – Track 01 Tabs

 -------------------------------------------------------------------------------
                             Track 01 - All That I Give
-------------------------------------------------------------------------------

Tuning: Drop D

INTRO:
e|-------------------------------------------------------------------------------------|
B|-------------------------------------------------------------------------------------|
G|-------------------------------------------------------------------------------------|
D|-----------2----------------X2-------------------------------------------------------|
A|-----3-----------3------2------------------------------------------------------------|
E|-0-0---0-0---0-0---0-0---------------------------------------------------------------|

e|--------------------------------------------------------------------------------------|
B|--------------------------------------------------------------------------------------|
G|--------------------------------------------------------------------------------------|
D|--------2-----------------------------------------------------------------------------|
A|--0-0-3---0-0-3-0-0-2-----------------------------------------------------------------|
E|--------------------------------------------------------------------------------------|

VERSE:
e|--------------------------|---|---------------------|
B|--------------------------|---|---------------------|
G|-----------------------2--|-3-|--2------------------|
D|-0-0-3-0-0-2-0-0-3-0--2--|-3-|--2-------------------|
A|-0-0-3-0-0-2-0-0-3-0--0--|-1-|--0----------------5--|
E|-0-0-3-0-0-2-0-0-3-0-----|----|------5-4-3-5-4-3----|

CHORUS:
e|-----------------------------------------------------------------------------------|
B|-----------------------------------------------------------------------------------|
G|-------------7---------------------------------------------------------------------|
D|---10--2--5--7---7-----------------------------------------------------------------|
A|---10--2--5--5---7-----------------------------------------------------------------|
E|---10--2--5------7-----------------------------------------------------------------|

BRIDGE:
e|--------------------------------------------------------------------------------|
B|--------------------------------------------------------------------------------|
G|--------4-----------------------------------------------------------------------|
D|--5--3--4-----------------------------------------------------------------------|
A|--5--3--2-----------------------------------------------------------------------|
E|--5--3--------------------------------------------------------------------------|

SOLO:
e|---------------------14--12--------------------------------------------------------|
B|------------------------------14---15----------------------------------------------|
G|-----------------------------------------------------------------------------------|
D|-----7--9--------------------------------------------------------------------------|
A|-7b -------9-10--------------------------------------------------------------------|
E|-----------------------------------------------------------------------------------|

e|-----------------------------------------------------------------------------------|
B|-----------------------------------------------------------------------------------|
G|--7--11--9--6----------------------------------------------------------------------|
D|---------------7-9-10-12-----------------------------------------------------------|
A|-----------------------------------------------------------------------------------|
E|-----------------------------------------------------------------------------------|

e|--------------------------------|
B|--------------------------------|
G|------------------CHORUS AGAIN--|
D|--------------------------------|
A|--------------------------