Tag: trail

Along The Navajo Trail chords – Bob Wills

 G7 C G7 C 
Every day along about evening

 G7 C G7 C 
When the sunlight's begining to fail

   F 
I r-ide through the slumbering shadows

  C F C 
Along the Navajo Trail



 G7 C G7 C 
When it's twilight and crickets are calling

 G7 C G7 C 
And coyotes are making a wail

    F 
I  dream by a smoldering fire

  C F C 
Along the Navajo Trail



   F Fm C 
I love to lie and to the music

          Fm C 
When the wind is strumming a sagebrush guitar

      Em B7 Em 
When over yonder hill the moon is climbing

           D7 G7 
It always finds me wishing on a star



                  C G7 C 
Well what do you know it's morning already

 G7 C G7 C 
There's the dawning so silver and pale

      F 
It's time to climb into my saddle

     C F C 
And ride the Navajo Trail 



 G7 C G7 C 
When it's twilight and crickets are calling

 G7 C G7 C 
And coyotes are making a wail

    F 
I  dream by a smoldering fire

  C F C 
Along the Navajo Trail

Colorado Trail chords – Kingston Trio

 Colorado Trail  Kingston Trio   Rick in Macon
Note that the penultimate chord in this tab is an F. Could be that ALL G7s should 
be replaced by Fs

 C C7 F Fm C 
Weep, all ye little rains. Wail, winds, wail.
 C Am C Am Dm7 G7 C  
All along, along, along the Colorado Trail.

 C C7 F Fm C 
Eyes like the morning star, cheeks like the rose,
 C Am D D7 G G7 
Laura was a pretty girl everybody knows.

 C C7 F Fm C 
Weep, all ye little rains. Wail, winds, wail.
 C Am C Am Dm7 G7 C   
All along, along, along the Colorado Trail.

 C C7 F Fm C 
Laura was a laughin' girl, joyful in the day.
 C Am D D7 G G7  
Laura was my darling girl. Now she's gone away.

 C C7 F Fm C 
Weep, all ye little rains. Wail, winds, wail.
  C Am C Am Dm7 G7 C  
All along, along, along the Colorado Trail.

 C C7 F Fm C 
Sixteen years she graced the Earth and all of life was good.
 C Am D D7 G G7   
Now my life lies buried 'neath a cross of wood.

 C C7 F Fm C 
Weep, all ye little rains. Wail, winds, wail.
 C Am C Am Dm7 G7 C  
All along, along, along the Colorado Trail.
 C Am C Am Dm7 F C  
All along, along, along the Colorado Trail.

Open Doors Tabs by And You Will Know Us By The Trail Of Dead

 Open Doors
...And You Will Know Us By the Trail of Dead

standard tuning

intro is just muted strings with
e|------------|
B|------+5----|
G|---------+5-|
D|------------|
A|------------|
E|---+5-------|
repeated over it

im not gonna tab it out line by line because its pretty simple and repetitive
so the chords are

e|-------------------------------|
B|-------------------------------|
G|-9-----------------------------|
D|-9x16--9----10------------5----|
A|-7-----9x16-10x12---------5x16-|
E|-0-----7----8----10101010-3----|

e|------------------------|
B|------------------------|
G|-9----------------------|
D|-9x16-9----11----10-----|
A|-7----9x16-11x16-10x16--|
E|-0----7----9-----8------|

theres a bridge/break part about half way in that i play as
e|--------------------------------------|
B|--------------------------------------|
G|-2222-222-4444-444-5555-555-5555-555--|
D|--------------------------------------|
A|-0000-000-2222-222-3333-333-3333-333--|
E|--------------------------------------|

the bridge appears again a little bit after and is extended after a few repeats
e|---------------------|
B|---------------------|
G|-4----5----6----5----|
D|--x16--x16--x16--x16-|
A|-2----3----4----3----|
E|---------------------|

e|------------------------|
B|------------------------|
G|-4----5----6----7---8---|
D|--x16--x16--x16--x8--x8-| then back to the E5 of the main chords
A|-2----3----4----5---6---|
E|------------------------|

this part is played again at the very end and finishes with a nice full resounding E5 
with the 6th string

played

Define The Trail chords – Justin Furstenfeld

 Intro, Verses, & Chorus
(Strum)


e|-------x-------x-------x-------x-------x-------x--------|
b|-------3-------3-------3-------1-------0-------3--------|
g|-------0-------2-------0-------0-------0-------2--------|
D|-------0-------0-------2-------2-------2-------2--------|
A|-------2-------0-------2-------3-------2-------0--------|
E|-------3-------2-------x-------x-------x-------x--------|
--------- G ------ D/F# ---- Em7 ------ C ------- Em ---- Asus4 ------|