Tag: Trees

Pure Mountain Angel chords – Truth And Salvage Co

 standart tunning 

 C F C C 
The boy he was a drifter
   F C 
A pure mountain angel
         C 
And the life he was living
     Am G 
Was harder than hell
         C 
And the song that he was singing
          F C 
Made you feel like a stranger
      C 
Way back in the holler
      G Am 
The old folks are home

         F C G C 
Singing hidee hay let the walls tumble in
          Am                     
Wont you take me back sallie
       G 
I’ll sing it again
         F C G C 
Singing hidee hay let the walls tumble in
          Am                   
Won’t you take me back south
       G C 
I’ll sing it again

The boy he was a drifter
A farmer and a singer
He had stories to tell
But he kept them to himself
Cause he knew that nobody
Would understand the anger
He has for this living of concrete and wealth
      
Singing hidee hay let the walls tumble in
Wont you take me back sallie
I’ll sing it again
Singing hidee hay let the walls tumble in
Won’t you take me back south
I’ll sing it again

Bridge:

 F G 
He can hear the thunder start soft like a whisper
        C F 
Then, shatter the mountainside
 F G 
The sky was black as winter Trees began to splinter
        C F     
Wind scattered them far and wide
       F G 
But he’ll make it back home alive
       F G 
He’ll make it back home alive
       F G 
He’ll make it back home alive
       F G 
He’ll make it back home alive

         F C G C 
Singing hidee hay let the walls tumble in
          Am                     
Wont you take me back sallie
       G 
I’ll sing it again
         F C G C 
Singing hidee hay let the walls tumble in
          Am                   
Won’t you take me back south
       G C 
I’ll sing it again

Patterns chords – Simon And Garfunkel

 Dm            
The night sets softly 
                          F Dm       
With the hush of falling le-e-eaves, 
                      
Casting   shivering shadows 
                           C              
On the houses through the trees, 
         Dm                    
And the light from a street lamp 
                        F Dm     
Paints a pattern on my wa-a-all, 
                        C  
  Like the pieces of a puzzle 
      Bb C Dm             
Or a child's   uneven scrawl 

      Dm                    
Up a narrow flight of stairs 
                    F Dm     
In a narrow little ro-o-oom, 
                   
As I lie upon my bed 
                      C              
In the early evening gloom. 
   Dm                   
Impaled on my wall 
                   F Dm     
My eyes can dimly se-e-e 
                    C  
 The pattern of my life 
         Bb C Dm          
And the puzzle  that is me. 

          Dm                
From the moment of my birth 
                      F Dm      
To the instant of my de-e-eath, 
                            
There are Patterns I must follow 
                             C               
Just as I must breathe each breath. 
        Dm               
Like a rat in a maze 
                    F Dm     
The path before me li-i-ies, 
                        C  
 And the pattern never alters 
   Bb C Dm            
Until  the rat dies. 

         Dm                    
And the pattern still remains 
                            F Dm      
On the wall where darkness fe-e-ell, 
                           
And it's fitting that it should, 
                         C              
For in darknesss I must dwell. 
          Dm                  
Like the color of my skin, 
                        F Dm     
Or the day that I grow o-o-o-old, 
                    C  
My life is made of Patterns 
          Bb C Dm               
That can scarcely  be controlled. 

Make My Mind chords – Screaming Trees

 Intro
 D  -  C  x 2

 D C 
Take a minute just to breathe
 D C G 
Take a minute 'till I'm wide awake
 D C     
I'm searching' once again
 D C G 
And the sun has left the sky


 C G  
And you're on my mind

And you're on my mind

 D  -  C  -  G D C G 
Take a second to believe
 D C G 
Just a second you won't have to wait
 D C G 
Don't you turn your back on me
 D C G 
I couldn't look into your eyes


 C G D 
And I don't know why and I don't know why
 C G 
But I'll try again on another day


 D F 
You make my mind
              C G D 
Just wanna leave this world behind
              F C G 
You make my mind, you make my mind
 D D  -  C  -  G  -  G  x2

 D C G 
Let the silence creep in
(Let the silence creep in)
 D C G 
In the silence I'm awake all night
 D C G 
Just searching once again
(Searching once again)
 D C G 
Well could I reach you in the morning light


 C G D 
If I closed my eyes, if I closed my eyes
 C G 
Well you're here right away


 D F 
You make my mind
              C G D 
Just wanna leave this world behind
             F C G 
You make my mind, you make my mind
 D C  -  G  -  D  -  D  x3

              C  
You're on my mind
               G 
I'll try again on another day

Solo (Chorus)
 D  -  F  -  C  -  G  x3


 C G D 
And I don't know why and I don't know why
 C G D 
If I close my eyes, if I close my eyes
 C G 
Well you're here right away


 D F 
You make my mind
              C G D 
Just wanna leave this world behind
             F C G D 
You make my mind Just wanna leave this world behind
             F C G 
You make my mind, you make my mind

 D F C G 
You make my mind, make my mind
 D F C G 
You make my mind, make my mind
 D F C G 
You make my mind, make my mind

Trees Are A Swayin chords – Say Hi

 Intro:
 G D Em C G D Em C G D Em C G D G G D Em C 
The trees are swayin' and the sky's comin' down
         G D Em C 
And we better get to shelter or we might in fact drown
         G D Em C 
And I know I never say it 'cause it's never like this
           G D G 
But I'll love you 'til the end of the world

 G D Em C G D Em C G D Em C 
Ohh, ohh, ohh
           G D G 
But I'll love you 'til the end of the world

          G D Em C 
You can make me feel small and you can take my hand
              G D Em C 
And you can tell me what to do and you can kiss another man
         G D Em C 
And I know I never say it 'cause it's never like that
           G D G 
But I'll love you 'til the end of the world

 G D Em C G D Em C G D Em C 
Ohh, ohh, ohh
           G D G 
But I'll love you 'til the end of the world

       G D Em C 
The trees are swayin' and the sky's comin' down
         G D Em C 
And we made it to some shelter but the power's goin' out
         G D Em C 
And I know I never say it 'cause it's never like this
           G D G 
But I'll love you 'til the end of the world

House On A Hill chords – Passenger

 So this is what I think "House on a Hill" by Passenger should be. It looks like 
the chords he's playing, and it sounds right. oh, also, this is a fingerstyle, 
which i figure is just the B string, the G string, and then the D string- 
basically, strum upwards slowly. 

House on a Hill
Capo 5
Standard tuning

intro:  Am 

( Am )                       C 
In an old house on a hillside
   G7 Am 
Next to the sea
 Am C G7 Am 
Far from the madness, that folds around me
 Am C G7 Am 
Peaceful and gentle, like sails on the breeze
 Am C 
In an old house on a hillside
  G7 Am 
Next to the sea


 Am C 
There’s a warm light on a cold night
      G7 Am 
And clean cotton sheets
 Am C G7 Am 
Soap smelling skin and tingling feet
 Am C 
With stars lining the skyline
      G7 Am 
And shine through the trees
 Am C 
In an old house on a hillside
 G7 Am 
Next to the sea


 G7 C Am - C 
And when the autumn comes down
 G7 C Am - C 
We’ll get what we need from the town
 G7 C Am - C  
And all of our friends will be round


 Am C 
In an old house on a hillside
 G7 Am 
Next to the sea
 Am C G7 Am 
Moon white as paper and night like asleep
 Am C G7 Am 
With old things behind us and new things to be
 Am C 
In an old house on a hillside
 G7 Am 
Next to the sea


 G7 C Am - C 
And when the sunshine comes down,
 G7 C 
My hair will turn golden
         Am C 
And my skin will turn brown
 G7 C Am - C 
And all of our friends will be round

Up On The Ridge chords – Dierks Bentley

 Up On The Ridge by Dierks Bentley

Capo on 4

Intro.: Come with me tonight   Am Am7 Am G Am Am7 Am G 
Let's blow out these city lights, let's just leave it all behind
 Am Am7 Am G 
Get up where the air is still, you can hear the whippoorwill
 Am Am7 Am G 
Start a fire pass the shine, won't be home till mornin' time
 Am Am7 Am G 
Shout your name out in the wind, confess my love for you again
 Am Am7 Am G Am Am7 
Give you all I got to give, that's how we live up on the ridge

           Am D Am7 Am Am7 
Won't you come with me tonight where moonlight drifts into your eyes
         Am D Am7 Am Am7         
I just want one little kiss when we get high up on the ridge

Inst.:  Am Am7 Am G Am Am7 Am G 
Hey now honey child, we'd be runnin' free and wild
 Am Am7 Am G 
No one care what you do, ain't law to answer to
 Am Am7 Am G 
Dance around in the dirt, listen to them crickets chirp
 Am Am7 Am G 
Hear old Jake start to howl, when he hears that ol' hoot owl
 Am Am7 Am G Am Am7 
Give you all I got to give, that's how we live up on the ridge

           Am D Am7 Am Am7 
Won't you come with me tonight where moonlight drifts into your eyes
         Am D Am7 Am Am7         
I just want one little kiss when we get high up on the ridge

Inst.:  Am Am7 Am G Am Am7 Am G 
Come on girl it's almost dawn, let's get it fore the magic’s gone
 Am Am7 Am G 
Tall, tall grass all around, come on lay that blanket down
 Am Am7 Am G 
Wild flowers just like you, lay on me like mornin' dew
 Am Am7 Am G 
Now take my hand, walk with me, sun come up through them trees
 Am Am7 Am G Am Am7 
Give you all I got to give, that's how we live up on the ridge

           Am D Am7 Am Am7 
Won't you come with me tonight where moonlight drifts into your eyes
         Am D Am7 Am Am7         
I just want one little kiss when we get high up on the ridge
         Am D Am7 Am Am7         
I just want one little kiss when we get high up on the ridge

Outro.:  Am Am7 Am G   (repeat to end)

Mona Lisas And Mad Hatters chords – Elton John V3

 Mona Lisas and Mad Hatters


Capo 3


 A 
And now I know
 C#7 F#m A D A Bm     
Spanish Harlem are not just pretty words to say
 A 
I thought I knew
 C#7 F#m A D A Bm 
But now I know that rose trees never grow in New York City

 D A Bm A 
Until you've seen this trash can dream come true
 D A E A 
You stand at the edge while people run you through
 D A E A 
And I thank the Lord there's people out there like you
 D A Bm E 
I thank the Lord there's people out there like you

            A G 
While Mona Lisas and Mad Hatters
         D E 
Sons of bankers, sons of lawyers
      A D 
Turn around and say good morning to the night
       C#7 F#m E 
For unless they see the sky
          D A B 
But they can't and that is why
      D E D A 
They know not if it's dark outside or light

 A 
This Broadway's got
 C#7 F#m A D A Bm         
It's got a lot of songs to sing If I knew the tunes I might join in
 A 
I'll go my way alone
 C#7 F#m A D A Bm 
Grow my own, my own seeds shall be sown in New York City

 D A Bm A 
Subway's no way for a good man to go down
 D A E A 
Rich man can ride and the hobo he can drown
 D A E A 
And I thank the Lord for the people I have found
 D A Bm E 
I thank the Lord for the people I have found

            A G 
While Mona Lisas and Mad Hatters
         D E 
Sons of bankers, sons of lawyers
      A D 
Turn around and say good morning to the night
       C#7 F#m E 
For unless they see the sky
          D A B 
But they can't and that is why
      D E D A 
They know not if it's dark outside or light

 A 
And now I know
 C#7 F#m A D A Bm       
Spanish Harlem are not just pretty words to say
 A 
I thought I knew
 C#7 F#m A D A Bm 
But now I know that rose trees never grow in New York City

 D A Bm A 
Subway's no way for a good man to go down
 D A E A 
Rich man can ride and the hobo he can drown
 D A E A 
And I thank the Lord for the people I have found
 D A Bm E 
I thank the Lord for the people I have found

            A G 
While Mona Lisas and Mad Hatters
         D E 
Sons of bankers, sons of lawyers
      A D 
Turn around and say good morning to the night
       C#7 F#m E 
For unless they see the sky
          D A <sp

Some Kind Of Monster chords – Neon Trees

 I'm some kind of monster since I lost her

 C#m | | A | | E  | | B | |
There's a trap door hidden in my heart
I fell into a lover's hell deeper then I thought
 C#m |  A |  E |  B 
I came crawling back to that motel
 F#m | | A | |
I don't recognize who I am tonight


 E | E | G#m |  G# (m)|
I'm some kind of monster since I lost her
| C#m | F#m |
Now I'm raging wild and starting fires
| A | B |
I'll burn this whole thing down
 E | E | G#m |  G# (m)|
Some kind of monster how bad do I want her
| C#m | F#m |
I don't sleep at night I'm terrorized
| A | B |
There's blackness in my eyes
| F#m | |
I'm some kind of monster
| A | B |
I'm some kind of monster

 C#m | | A | | E  | | B | |
Everybody wanted her as a friend for fun
The time we took the nights we shook should have been enough
 C#m |  A |  E |  B 
Now her face is carved into my head
 F#m | | A | |
She's a damsel I'm in such distress


 E | E | G#m |  G# (m)|
I'm some kind of monster since I lost her
| C#m | F#m |
Now I'm raging wild and starting fires
| A | B |
I'll burn this whole thing down
 E | E | G#m |  G# (m)|
Some kind of monster how bad do I want her
| C#m | F#m |
I don't sleep at night I'm terrorized
| A | B |
There's blackness in my eyes
| F#m | |
I'm some kind of monster
| A | B |
I'm some kind of monster



| F#m | | A | |
I used to whisper in her ear
| E | | F#m | B |
Now I am screaming out in fear
| F#m | | A | |
Secrets keep me sinister but I've told her every one
| B | | A | B |
So why can't she understand the creature I've become


 C#m | | A | | E  | | B | |
There's a trap door hidden in my heart
I fell into a lover's hell deeper then I thought


 E | E | G#m |  G# (m)|
I'm some kind of monster since I lost her
| C#m | F#m |
Now I'm raging wild and starting fires
| A | B |
I'll burn this whole thing down
 E | E | G#m |  G# (m)|
Some kind of monster how bad do I want her
| C#m | F#m |
I don't sleep at night I'm terrorized
| A | B |
There's blackness in my eyes
 E | E | G#m |  G# (m)| C#m | F#m | A | B |
I'm some kind of monster
I'm some kind of monster

Reverse chords – Gabrielle Aplin V2

 C G Am 
I've sat and watched this city crumble,
      C G Am 
Just as it was being built.
      C G Am 
The bigger it gets the less it's thought of,
          C G Am 
I'm just scared of losing all that we have left.



Chorus:
         C G Am 
And the colours of these roads are matching the rainy sky.

           C G Am 
We're too blind to see what's really here in front of our eyes.

      C G Am 
And I hope someday this will all reverse, 

             C G Am 
And send us back to the times before.
 
           C G Am 
Before we grew up and lost the novelty of, 

 C G Am 
Clear blue skies and climbing trees.

      C G Am 
Can't you see what our lives have come to be?

      C G Am 
Can't you see what our lives have come to be?


    C G Am 
We used to just make friends so easily,
       C G Am 
Never judging anyone was how it's meant to be.
      C G Am 
Our parents were always heroes in our eyes,
      C G Am 
But TV and magazines soon changed our minds.



Chorus:
         C G Am 
And the colours of these roads are matching the rainy sky.

           C G Am 
We're too blind to see what's really here in front of our eyes.

      C G Am 
And I hope someday this will all reverse, 

             C G Am 
And send us back to the times before.
 
           C G Am 
Before we grew up and lost the novelty of, 

 C G Am 
Clear blue skies and climbing trees.

      C G Am 
Can't you see what our lives have come to be?

      C G Am 
Can't you see what our lives have come to be?


      C G Am 
I watched people I loved turn into rust,
 C G Am 
Wearing almost nothing they go out after dusk.
    C G Am 
As if to be accepted you need to sell yourself,
      C G Am 
They need to learn there's much more to this world.



Chorus:
         C G Am 
And the colours of these roads are matching the rainy sky.

           C G Am 
We're too blind to see what's really here in front of our eyes.

      C G Am 
And I hope someday this will all reverse, 

             C G Am 
And send us back to the times before.
 
           C G Am 
Before we grew up and lost the novelty of, 

 C G Am 
Clear blue skies and climbing trees.

      C G Am 
Can't you see what our lives have come to be?

      C G Am 
Can't you see what our lives have come to be?

Trust chords – Neon Trees

 | Bb | F | C | Dm C |
| Bb | F | C | |



| D5 | C5 | G5 | |
You, you got your head in a scream,
And I'm, I'm trying to get your attention
| D5 | C5 | G5 | F5 |
You appear as a child put your heart on a seam,
But you're acting exactly as you do in my dreams
I said you; you are not what you seam And you're finding out that


| Bb | F | C | Dm C |
Falling down can feel strange
No one remembers your name,
You're loosing the game
That the thing about trust
It's always the same
Sad story again
You lose all your friends
That the thing about trust

You, you got your head in a swing
Ya, I, I am trying to give you salvation
You appear as a devil
Like a wolf in the woods
But your acting exactly as we excepting you would
I said you; you read the words that I sing, as a shot to the [?]

Falling down can feel strange
No one remembers your name,
You're loosing the game
That the thing about trust
It's always the same
Sad story again
You lose all your friends
That the thing about trust

| Dm | | | Bb |
Don't lie to me when the pressures on, you gotta have trust
| Dm | | C | Bb |
Don't lie to me when the pressures on, you gotta have trust
| Dm | | | Bb |
Don't lie to me when the pressures on, you gotta have trust
| Dm | | F C | Bb |
Don't lie to me when the pressures on, i said you gotta have trust

| Bb | F | C | Dm C |
Don't give up x4

| Bb | F | C | Dm C |
Falling down can feel strange
No one remembers your name,
You're losing the game
That the thing about trust
It's always the same
Sad story again
You lose all your friends
That the thing about trust 

Sleeping With A Friend Tabs by Neon Trees

 Drop D Tuning

Intro/Chorus
e-----------------------------------------|
b-12----10--------------------------------|
g----11----11----11----11--12-12-11-11----|
d-------------12----12-----------------12-|
a-----------------------------------------|
d-----------------------------------------|

Synth
e-----------------------------------------------|
b-----------------------------------------------|
g------9~--11~--12~-----------9~----------------|
d-12~--------------------12~------11~----12~----|
a-----------------------------------------------|
d-----------------------------------------------|

Rhythm (It's the bass or something.  Can play in between guitar parts.  Bottom d0's for 
D chord are optional)
e---------------------------------------------------------------------|
b---------------------------------------------------------------------|
g----------7-7-7-7---------------------------7-7-7-7------------------|
d-5-5-5-5--7-7-7-7--7-7-7-7-7-7-7-7-5-5-5-5--7-7-7-7--7-7-7-7-9-9-9-9-|
a-5-5-5-5--5-5-5-5--7-7-7-7-7-7-7-7-5-5-5-5--5-5-5-5--7-7-7-7-9-9-9-9-|
d-5-5-5-5-(0-0-0-0)-7-7-7-7-7-7-7-7-5-5-5-5-(0-0-0-0)-7-7-7-7-9-9-9-9-|

Verse
Rhythm
e-----------------------------------------------------------------|
b-----------------------------------------------------------------|
g-----------------------------------------------------------------|
d-----------------------------------------------------------------|
a-----------------------------------------------------------------|
d-5-5-5-5-5-5-5-5-5-5-5-5-0-0-0-0-7-7-7-7-7-7-7-7-7-7-7-7-9-9-7-7-|

Guitar
e-----------------------------------------------------------------------------------|
b-------------------------------7---77------77---------77--------7---7--------------|
g-77-99-77---77-99-77---7--9-7----7----99------99-77------99-77----9---9---77-99-77-|
d-----------------------------------------------------------------------------------|
a-----------------------------------------------------------------------------------|
d-----------------------------------------------------------------------------------|

e-------------------------------------------------------------------------|
b-------------------------------7---7-------7-----77---------7------------|
g-77-99-77---77-99-77---7--9-7----7---9---7---9------99-77------9-7--9-77-|
d-------------------------------------------------------------------------|
a-------------------------------------------------------------------------|
d-------------------------------------------------------------------------|

Chorus

Verse 2
Rhythm Same
Guitar Same

Synth (Plays some stuff when guitar comes in but pretty hard to hear it.  I'll try and 
tab it later on.)
e-------------------------------|
b-----------7~------------7~----|
g---7---7-9---------7---7-------|
d-9---9-----------9---9---------|
a-------------------------------|
e-------------------------------|

Chorus

Bridge
Rhythm
e---------------------------------------------------------------|
b---------------------------------------------------------------|
g---------------------------------------------------------------|
d-2-2-2-2-2-2-2-2/5-5-5-5-5-5-5-5-7-7-7-7-7-7-7-4-4-4-4-4-4-4-4-|
a-2-2-2-2-2-2-2-2/5-5-5-5-5-5-5-5-7-7-7-7-7-7-7-4-4-4-4-4-4-4-4-|
d-2-2-2-2-2-2-2-2/5-5-5-5-5-5-5-5-7-7-7-7-7-7-7-4-4-4-4-4-4-4-4-|

e--------------------------------------------------|
b--------------------------------------------------|
g--------------------------------------------------|
d-2-2-2-2-2-2-2-2/5-5-5-5-5-5-5-5-7-7-7-7-7-7-7//--|
a-2-2-2-2-2-2-2-2/5-5-5-5-5-5-5-5-7-7-7-7-7-7-7//--|
d-2-2-2-2-2-2-2-2/5-5-5-5-5-5-5-5-7-7-7-7-7-7-7//--|

Synth Part (Very faint part at the "All my friends..." part.)
e---------------------------------|
b-----7-------7-------7---88-77---|
g---7---7---7---7---7---7-------7-| repeat
d-9-------9-------9---------------|
a---------------------------------|
d---------------

Weekend solo Tabs by Neon Trees

 -------------------------------------------------------------------------------
                             Weekend - Neon Trees
-------------------------------------------------------------------------------
: Pochama999
 kidicarus505@aol.com

Tuning: Standard

e|-------------------------------------------------------------------|
B|-------------------------------------------------------------------|
G|---7-7--9-7-9-7-6-------------------7-7--9-7-9-7-6-----------------|
D|-------------------9--9--9--9--9--------------------7--7--7--7--7--|
A|-------------------------------------------------------------------|
E|-------------------------------------------------------------------|


e|-------------------------------------------------------------------|
B|-------------------------------------------------------------------|
G|---7-7--9-7-9-7-6-------------------7-7--9-7-9-7-6-----------------|
D|-------------------9--9--9--9--9--------------------7--7--7-9---7--|
A|-------------------------------------------------------------------|
E|-------------------------------------------------------------------|

That's the best that I could make out for the riff in the verses.

, so if you have any corrections or suggestions, make sure to let me know!

Five Minutes chords – Scattered Trees

 Intro:  A E6 F#m D/A A/E F#m A E6 F#m 
I'm right here

                 D/A E6 A 
Five minutes at a time, I'm gone

 A F#m C#m Bm A 
I can't breathe, I'm in too deep

            F#m Dm A 
So take me up to the sur-face

         F#m D A 
Take me up to the sur-face

 A F#m C#m Bm F#m (hold)
I won't dream for fear of sleep


Take me up to the surface (x2)


Break:  A E6 F#m D/A E6 A/E F#m A F#m C#m Bm A 
Could you see be-yond the leaves

             F#m Dm A 
When it was me who was search-ing

             F#m D A 
To take you up to the sur-face?

     A F#m C#m Bm F#m (hold)
And I was lost, but I was free

It took the pain to remind me


Break:  F#m Ab7 A B7 C# D A F# D C#7 E D C# E7 
       We loved you everytime

        F#m7 Ab A B7 C#7 D E7 F#m D C# E D C# E7 
       We loved you every time


 A E F#m 
I'm right here

                 D E6 F#m7 Bm7 
Five minutes at a time, I'm gone


Break:  A D6 A Dmaj7 F#m D6 A Dmaj7 A Dmaj7 A A D Em7 Bm7 A 
I can't relate to what I say

 D F#m Bm A 
Cause I'm not my-self

 D Em7 Bm7 A 
I can't relate to what I say

 Dmaj7 Bm A 
Cause I'm not my-self

 A D/A Bm7 A 
I can't relate to what I say

           D C#m7 
Cause I'm not myself, I'm not

 F#7 E Bm7 
I'm right here

                 D A E Bm7 
Five minutes at a time, I'm gone

 A E B7 
I'm right here

                 D E A Bm7 
Five minutes at a time, I'm gone

Outro:  A Amaj F#m D/A A/E F#m

Can I Say Tabs by Songs Of Trees

 Standard Tuning
Video tutorial here: http://youtu.be/ZHvFNmVKdUw

Part1

Esus4 Shape
E------------------------------------------------------------------------|
B---0-----------0--------------------------------0----------------0------|
G---2-------2-------2----------0---1-------1-------1---------------------|
D---0---0---------------0--------------0----------------0----------------|
A---2-----------------------2-------2------------------------2-----------|
E------------------------------------------------------------------------|

A Shape
E--------------------------------------------------------------------------------------------------|
B---2------------2---------------------------------2-------------------------------2---------------|
G---2-------2--------2-----------0----1-------1-------1-----------1---0-------0-------0------------|
D-------2-----------------2---------------2----------------2---------------2----------------2------|
A---0-------------------------0-------0------------------------0-------0------------------------0--|
E--------------------------------------------------------------------------------------------------|

Dm Shape
E--------1-----------1-----------------------|
B---3----3-------3-------3-----------3-------|
G--------2---2----------------2--------------|
D--------0------------------------0----------|
A--------------------------------------------|
E--------------------------------------------|

G & A Shapes
E----------------3-------------------------------0----|
B---3---------------3-----------0---2-----------------|
G---0-------0----------0-------------------2----------|
D---0---0-------------------------------2-------------|
A------------------------------------0----------------|
E---3-----------------------3-------------------------|

Repeat Esus4 Shape
E------------------------------------------------------------------------|
B---0-----------0--------------------------------0----------------0------|
G---2-------2-------2----------0----1-------1-------1--------------------|
D---0---0---------------0--------------0----------------0----------------|
A---2-----------------------2-------2------------------------2-----------|
E------------------------------------------------------------------------|

A Shape
E----------------0--------------------------------0-----|
B---2---------------2-----------------------------------|
G---2-------2----------2-------2------------2-----------|
D-------2--------------------------------2--------------|
A---0-----------------------0-------0-------------------|
E-------------------------------------------------------|


Part2

Bm & F#m Shape
E----------------2---------------------------------2--------|
B---3---------------3------------2---2---------------2------|
G-----------4-----------4------------2--------2-------------|
D-------4----------------------------------4----------------|
A---2-----------------------2-------------------------------|
E------------------------------------2----------------------|

A & E Shape
E----------------0--------------------------------0----|
B---2---------------2----------------0-----------------|
G---2-------2----------2-------2-----1-------1---------|
D-------2----------------------------2---2-------------|
A---0-----------------------0--------------------------|
E------------------------------------0-----------------|

Bm, F#m & F Shapes
E----------------2---------------------------------2----------------1---------------|
B---3---------------3------------2---2----------------1---------------1-------------|
G-----------4-----------4------------2--------2-------2-------2----------2----------|
D-------4----------------------------------4----------3---3-------------------------|
A---2-----------------------2-------------------------------------------------------|
E------------------------------------2----------------1----------------------0------|

E7 & 

Tall Trees chords – Yearbook Committee

 -------------------------------------------------------------------------------
                             TALL TREES - Yearbook Committee
-------------------------------------------------------------------------------

Band site: yearbookcommittee.org

CAPO 3

Chords relative to capo. Just the same four chords the whole time.


VERSE 1
 Em F#m 
We are tall trees, we all look the same
    D Am 
until the fall comes
Then our true colors show, red orange and yellow
Then we all die but just for now

Winding road, loud rain on the roof
and cold wind thunder
and then comes a telegraph, phone call, smoke signals
Proof of mortality and three words

Oooo

VERSE 2
We are tall trees, we are so vibrant
Until the snow falls
and then we all look the same
Birch bark bones, branches
Skin muscle and leaves, ours just for now

Once inside a warm house we forget how cold we were
Then comes a note tied to a rock through the window
Bitter reminder and three words

Oooo

Trees Trust chords – Kye Kye

 -------------------------------------------------------------------------------
                             TREES & TRUST - Kye Kye
-------------------------------------------------------------------------------
: Leek
 faln@live.com

Tuning: Standard

Capo 1

Intro

 G 


Verse 1

       C                
You chased my heart so I could see, (1Jo.4:19)
     Em G 
but I stood unacceptable. (Ro.1:21)
       C 
you called my name with infinite time (Eph.1:4)
    Em G 
and I lost sight so easily (Eph.4:18)


Prechorus

      C Em G 
then oh, I stood in the silence, I lay in the night, a voice in the stillness (Ps.46:10)(1Kgs.19:12)
 C Em G 
"oh my love, you're my child, take all these good things, soften your heart". (Phlm:6)


Chorus

 G Am Bm G D/F#      
Lord help me, Help me remember (Jon.14:26)
 G Am Bm D/F# 
flesh is weak, my spirit's strong, (Mat.26:41)
 G Am Bm G D/F# 
dressed the trees you saw their splendor
 G Am Bm D/F# 
more to you, love I am more. (Mat.6:26-34)

 G 


Verse 2

     C 
You found me as an empty room,
 Em 
walls with holes
      F C                     
so eagerly to say "oh love you own It all" (Gal.4:1) (Eph.1:3 & 2:6)
 Em F 
Inside of me, flows out of me. (Col.1:27)(2Cor.5:17)


Prechorus

Chorus (x2)


Chorus 2

 G Am Bm G D/F# G Am Bm    
Walk with me, tell me the depth of the raging sea,
             D/F# 
the deepest blue 
                            G 
could never define you (Gal.1:11-12)(1Jo.2:27)


Repeat Chorus chords until end.


Scriptural Citations in Parentheses taken directly from 'About' section of song's 
official Youtube page, uploaded by Kye Kye.

Love And Loss chords – The Honey Trees

 SONG:   LOVE AND LOSS
ARTIST: THE HONEY TREES
TAB BY: DON CZARSKI
EMAIL:  GUITARZAN7@HOTMAIL.COM

                 LOVE AND LOSS
                THE HONEY TREES

NOTE:
     This TAB is for the CD version.
     To play the CD version use NO CAPO
     and follow the tab exactly.

     If playing the LIVE version use a 
     CAPO on the 2nd fret. In the live 
     version ONLY the INTRO,  
     INSTRUMENTAL and INTERLUDE parts 
     are slightly different.


INTRO:   C C Am G Am Am C G C 


VERSE:
  C Em Am 
Her heart lies awake at night
   C Am G C 
Calling the sun to warm the skies
                  Em Am 
Her ivory hands hold so tightly
  C Am G F 
To the hope of morning


CHORUS:
  F 
And in this house
    G 
I hear a voice
      F             
The paintings of all
       Am G 
They tell the tales of
       F G 
The faces that lie beyond these halls
      F Am G C    
And carry the weight of love and looooss


INSTRUMENTAL:
 C Am Em Am Am C G C 


VERSE:
  C Em Am       
Facing time on her own
       C Am G C 
She mourns the day her love let go
                      Em Am 
But in her burdened heart she knows
   C Am 
Peace will come
       G F 
With morning


BREAK:
        F G 
Her memories they hang like ghosts
 F Am G 
Up on the walls the widows pass those
      F G 
The faces that lie beyond these walls
       F Am G C 
And carry the weigth of love and looooss


INTERLUDE:
 C Am Em Dm  
ohhhh ohhhh ohhhh ohhhh
 Am C G C  
ohhhh ohhhh ohhhh ohhhh
 C Am Em Dm  
ohhhh ohhhh ohhhh ohhhh
 Am C G C  
ohhhh ohhhh ohhhh ohhhh


CHORUS:
  F 
And in this house
    G 
I hear a voice
      F             
The paintings of all
       G 
They tell the tales of
       F G 
The faces that lie beyond these halls
      F Am G C    
And carry the weight of love and looooss


OUTRO:
 C Am G Am C Am G C

Pine Trees chords – Jake Bugg V3

 Artist: Jake Bugg
Song: Pine Trees


*********************************


//Capo 2nd Fret//

Chord notes:

 C             032010
 Am7           002010
 Bm7/A *       004030
 G6            320000 
 F             133211


*********************************

//INTRO//     

 C  x2


 C 
You can walk in the pine trees
 C 
You can sit down
 Am7 G6 
You can hold the earth in your hands

 C 
You can run from all this
 Am7 G6 
You can go the long way
 F C G6                          
You can carry my weight the whole way down

 F Am7 
As the crow flies straight
 C G6 
Holds me in his gaze
 F Am7 
As he rises to his fate
 C G6 
We can do the same

 F C 
I try not to visualize other people's eyes
                     G6 
And their compromising ways
 F C 
And as I leave them far behind
                          G6 
I try to hide the route of my escape



//BRIDGE//

 Am7 Bm7/A *       Am7 C 
You can sit in the pine trees
 C 
You can feel at home
 Am7 G6 
You can breathe a sigh of silence in the woods
 C                   
You can bawl your heart out
 Am7 G6 
Make your feelings known
 F C G6 
Things the grass already knows

 F Am7 
As the crow flies straight
 C G6 
Holds me in his gaze
 F Am7 
As he rises to his fate
 C G6 
We can do the same

 F C 
I try not to visualize other people's eyes
                         G6 
And their compromising ways
 F C 
And as I leave them far behind
                                  G6 
I try to hide the route of my escape



//FINAL CHORDS//

 Am7 Bm7/A *      G6

Pine Trees chords – Jake Bugg V2

 Jake Bugg's Pine Tree's 

Capo 1

Verse 1

 C 
You can walk in the pine trees
                  Am 
You can sit down
                                 G6 
You can hold the earth in your hands

 C Am 
You can run from all this
                     G6       
You can go the long way
 F C G6 
You can carry my weight the whole way down
         
Chorus

        F Am 
As the crow flies straight
 C G6 
Holds me in his gaze
       F Am 
As he rises to his fate
 C G6 
We can do the same
 F C 
I try not to visualize other people's eyes
                         G6 
And their compromising ways
    F 
And as I leave them far behind
   C G6 
I try to hide the route of my escape

Break:  Am Dsus Am 

Verse 2

 C 
You can sit in the pine trees
 Am 
You can feel at home
                                          G6 
You can breathe a sigh of silence in the woods
 C 
You can bawl your heart out
 Am G6 
Make your feelings known
 F C G6 
Things the grass already knows

Chorus       

 F Am   
As the crow flies straight
 C G6 
Holds me in his gaze
        F Am 
As he rises to his fate
 C G6 
We can do the same

 F C 
I try not to visualize other people's eyes
                         G6 
And their compromising ways
     F 
And as I leave them far behind
    C G6 
I try to hide the route of my escape


Outro (Strumming slows as you get to Dsus) 

 Am Dsus C 

This is my first time submitting chords, so don't judge to much if the chord 
aren't placed to well, but I know they are correct :) If you have any questions or 
requests email me: dandan0702@hotmail.co.uk

Pine Trees chords – Jake Bugg

 Capo on 1. All chords relevant to capo. G can be played as Gsus4.

Intro - pluck C chord.

 C 
You can walk in the pine trees
 G 
You can sit down
 Am G 
You can hold the earth in your hands

 C 
You can run from all this
 G 
You can go the long way
 Am G  
You can carry my weight the whole way down

        F Am 
As the crow flies straight
 C G 
Holds me in his gaze
       F Am 
As he rises to his fate
 C G 
We can do the same

 F Am 
I try not to visualize other people's eyes
                       G          
And their compromising ways
 F           
And as I leave them far behind
   Am G 
I try to hide the route of my escape


(Plays D by sliding C shape up two frets)


 C 
You can sit in the pine trees
 G 
You can feel at home
 Am G 
You can breathe a sigh of silence in the woods
 C 
You can bawl your heart out
 G 
Make your feelings known
 Am G 
Things the grass already knows

 F Am 
As the crow flies straight
 C G 
Holds me in his gaze
     F Am 
As he rises to his fate
 C G 
We can do the same

 F Am 
I try not to visualize other people's eyes
                        G 
And their compromising ways
 F                    
And as I leave them far behind
 Am G 
I try to hide the route of my escape



Read more: Jake Bugg - Pine Trees Lyrics | MetroLyrics