Tag: try

Give Yourself A Try piano chords by The 1975

[Verse 1]
            B                      D#m      E
You learn a couple things when you get to my age
      B                           D#m                    E
Like friends don't lie and it all tastes the same in the dark
          B                       D#m                       E
When your vinyl and your coffee collection is a sign of the times
               B               D#m         E
You're getting spirituality enlightened at 29


[Chorus]
        B         D#m    E
So just give yourself a try
          B       D#m     E
Won't you give yourself a try?
          B        D#m    E
Won't you give yourself a try?
          G#m      F#   E
Won't you give?


[Verse 2]
   B            D#m              E
I found a grey hair in one of my Zoots
      B                    D#m                 E
Like context in a modern debate I just took it out
    B                 D#m                         E
The only apparatus required for happiness is your pain and fucking going outside
            B         D#m                E
And getting STD's at 27 really isn't the vibe
 B                D#m     E
Jane took her own life at 16,
          B               D#m                  E
She was a kid who had the box tattooed on her arm
    B      D#m      E
And I was 25 and afraid to go outside
  B              D#m          E
A millenial that baby-boomers like


[Chorus]
        B         D#m    E
So just give yourself a try
          B       D#m     E
Won't you give yourself a try?
          B        D#m    E
Won't you give yourself a try?
          G#m      F#    E
Won't you give?


[Interlude]

B   D#m    E
B   D#m    E


[Bridge]
     B                                   E
'And what would you say to your younger self?'
           B
Growing a beard's quite hard
                                   E
And whiskey never starts to taste nice
          B                               
And you'll make a lot of money, and it's funny
                                                        E
'Cause you'll move somewhere sunny and get addicted to drugs
           B                                           E
And spend obscene amounts on fucking seeds and beans online


[Chorus]
        B         D#m    E
So just give yourself a try
          B       D#m     E
Won't you give yourself a try?
          B        D#m    E
Won't you give yourself a try?
          G#m      F#     E
Won't you give?


[Outro]

B    D#m     E
B    D#m     E

Try Me chords – Trisha Yearwood

 Trisha Yearwood - Try Me


CAPO: 4th Fret




INTRO:  G D G C G D G C 
You don't think you can find true love again
           G C 
Won't you try me 
         G C G 
There's somebody somewhere that you can't forget
           D 
So you're not free   


     G C 
And I don't believe you believe
                    G C 
You could ever get by me 
       G D 
Maybe I could undo
         G C 
All the hurt you've been though
     G D G 
Try me, try me, try me 


                          C 
You've got no right to deny me a fight
          G C 
'Til you try me 
    G C G 
It could be all wrong, but it could be alright
        D 
So why don't we               


 G C 
You need a way to forget yesterday
             G C 
Well that's easy 
      G D 
If a little heartache
         G C 
Is what you need to shake 
     G D G 
Try me, try me, try me 


BRIDGE:
 C 
Come on love
            G D 
You've got nothing to lose 
   C 
A lifetime of loneliness 
 G D 
What does that prove 
          G D 
When you count up the odds
               G C 
There's still no guarantee
     G D G 
Try me, try me, try me 


INSTRUMENTAL:  D G C G D G C 
When you go to sleep and you can't find a dream
           G C 
Won't you try me 
   G C G 
A place you can whisper the secrets you keep
             D 
That's what I'll be               


          G C 
And when you've given up and there's no one to trust
          G C 
Come and find me
      G D 
Then maybe you could
       G C 
Leave lonely for good
     G D G C 
Try me, try me, try me 
     G D G 
Try me, try me, try me 


OUTRO:  D G C G D G

Try Hard chords – 5 Seconds Of Summer V9

 5 Seconds Of Summer
Try Hard
Submitted by: jeremyunderground41

Key: B

Tuning: Standard EADGBe

Chords used:
 B  -     x24442
 F#  -    244322
 G#m  -   466444
 E  -     022100
 F#m  -   244222
 F#/Bb  - x143xx
 Em  -    022000


Intro: B--F#--G#m--E-- 


Verse 1:
       B 
She's dropping out of school
cause she don't need the grade
     F# 
The colors in her hair don't
                G#m 
seem to fade I get dressed up
                       E 
when I go out but she gets
                    B 
dressed down She's 17 I've
                   F# 
told her I'm 20 I couldn't
take her out cause Mom's
                    G#m 
got no money It's stuff
                F#/Bb 
like this that makes me
 Bb E 
wish that I could change
         G#m F#/Bb 
somehow Sitting here
   E   E(hold)
at home it's obvious


Chorus 1:
 B F#m 
She's so out of reach
and I'm finding it
                E 
hard cause She makes me
feel makes me feel
        Em 
Like I try like I try
like I'm trying too hard
       B F#m 
Cause I'm not being me
and it's getting me down
          E 
that She makes me think
makes me think That I
 Em 
try that I try that
I'm trying too hard
again Cause I'm
                  B F# G#m E 
trying too hard again


Verse 2:
             B 
She's got a rude tattoo
but she keeps it covered
 F# 
I play guitar but she's
                     G#m 
into drummers She's see
my face around but she
              E 
doesn't even know my name
   B 
I pierced my lip so she
                   F# 
thinks I'm cool I ripped
my jeans and I dropped
                 G#m 
out of school I followed
                F#/Bb 
her around the town but
     B 
she thinks that I'm
   E G#m 
a weirdo now Sitting
F#/Bb   E   E(hold)
here at home it's obvious


Chorus 2:
 B F#m 
She's so out of reach
and I'm finding it
                E 
hard cause She makes me
feel makes me feel
        Em 
Like I try like I try
like I'm trying too hard
       B F#m 
Cause I'm not being me
and it's getting me down
          E 
that She makes me think
makes me think That I
 Em 
try that I try that
I'm trying too hard
again Cause I'm
trying too hard-


Bridge:
   G#m E B 
-again But now who knew?
      F# 
That She's in the crowd of
    G#m E B 
my show Nothing to lose
       F#(hold)
She's standing right
              G#m 
in the front row
     E B 
The perfect view
 F# 
She came along after
 E 
all But here's something
                 Em 
that you should know


Chorus 3: Lower voice
 B F#m 
You're so out of reach

and I'm finding it
                E 
hard cause You make
me feel makes me feel


Higher voice:
          Em 
Yeah she makes me
feel makes me feel
it's obvious


Chorus 2:
 B F#m 
She's so out of reach
and I'm finding it
                E 
hard cause She makes me
feel makes me feel
        Em 
Like I try like I try
like I'm trying too hard
       B F#m 
Cause I'm not being me
and it's getting me down
          E 
that She makes me think
makes me think That I
 Em 
try that I try that
I'm trying too hard

Try To Remember Forget Acoustic chords – Say Anything

 This is the acoustic version of Try To Remeber, Forget from the 7" split with Eisley.
I haven't shown any strumming patterns, but you can hear the song here to figure it out 


Intro
|-------------------------------|
|-------------------------------|
|-------------------------------|
|---------9-6~----------9~------|
|--7/9/7--7-7~---7/9/7--7~------|
|-----------------------5~------| X2

Verse
|----------------|
|----------------|
|-9--9---6-------|
|-9--9---7-------|
|-7--6---7-------|
|--------5-------|

Chorus
|-----------|-------------------|
|-----------|-------------------|
|-9--8--8---|-------------------|
|-7--9--9---|-9~----9--9--------|
|-9--x--x---|-7~----7--6--------|
|----9--7---|-5~----5--7--------|
          x3
Interlude
|---------------|
|---------------|
|---------------|
|-9--9----------|
|-7--6----------|
|-5--7----------|

Outro
|---------------|
|---------------|
|---------------|
|--------9-6~---|
|-7/9/7--7-7~---|
|---------------|

Order:
Intro
verse x2
chorus
verse X4
Chorus
Interlude x6
verse x2
chorus
Outro


NOTE: Bemis is strumming the B and e strings open during most of the song, I didn't note
that because it looked messy, but here's a head's up

Try Not To Think chords – Easyworld

 Try Not to Think

Riff 1

e-----------|
B-----------|
G-6-6-5-3-3-|
D-----------|
A-4-4-3-1-1-|
E-----------|

Riff 2

e------------|
B------------|
G-3-5-7-10-6-|
D------------|
A-1-3-5-8--4-|
E------------|

Intro

Riff 1
Riff 2
Riff 1
Riff 2
Riff 1


Verse 1

he likes to keep his brain
on the more mundane
cos some things, they just are, you know

Riff 1
things are falling into place
he's thinking of the chase
and picturing her face
upon the body of
a silicon based porn-star


Chorus

Bb                      Eb
i dont know why
F
but i just
Gmin                    C       Gmin
love everything about you
Bb              Eb
i'm gonna try
F
not to think;
        Gmin                    C               Gmin
if i think, i could doubt you


Verse 2

Riff 1
star-cross'd lovers take their lives
every friday nite
he's swearing by the moon again

Riff 1
she tells invented dreams
finds it hard to breathe
writes his name in steam
upon the shower screen
with her left hand


Repeat Chorus


Middle 8

play this riff at the 2nd C#
e--------------------------------|
B--------------------------------|
G-6-8-10-11-13-15-17-18-20-20b21-|
D--------------------------------|
A-4-6-8--9--11-13-15-16-18-18b19-|
E--------------------------------|


F#
little me
                                C#
little unromantic me
F#
honestly, sincerely
                        C#
but unromantically
        Eb
little me


Repeat Chorus x2

End on Bb

Im Gonna Try chords – Shimmering Stars

 Song: I'm gonna try
Artist: Shimmering Stars
 Violent Hearts

 C# Bbm 
walking down the street and i wanna kill everyone i see 
 C# Bbm 
how come i don't like anyone that i meet? 
 C# Bbm 
and despite my antipathy i am longing to be someone better 

 F# Ab Bbm 
in my heart is a violence that i cannot dispel 
 F# Ab F# C# 
i've lost my mind i'm losing you it's just as well 

 C# Bbm 
i'm gonna throw on these old jeans i'm gonna head out on the street 
 C# Bbm 
i'm gonna dream up a new dream & i'm gonna dance to a brand new beat 
 C# Bbm 
i'm gonna find a new desire then i'm gonna set this town on fire 

 F# Ab Bbm 
i'm wearing a smile and it's fake but right now it has to be 
 F# Ab F# C# 
cause i know that love is the only thing that's gonna save me 

 C# Bbm 
i'm gonna try

end with F# Ab Bbm I think.

- I don't have a guitar in front of me, that's from memory - hope it helps.

- Veedub

http://shimmeringstars.bandcamp.com/

Try Tabs by The Xx V2

 , and it is of the song "Try" by The xx! Enjoy!
If it helps in any way, the BPM of "Try" is 96 beats per minute.


INTRO MELODY (0:00 - 0:11):

      (Part 1)
e|-7---------------|
B|---7-8-7-5-7-8-7-|
G|-----------------| (2x)
D|-----------------|
A|-----------------|
E|-----------------|

      (Part 2)
e|-5---------------|
B|---7-8-7-5-7-8-7-|
G|-----------------| (2x)
D|-----------------|
A|-----------------|
E|-----------------|


VERSE (0:11 - 0:30):

e|---------|--------|---------|--------|---------|--------|------------|
B|---------|--------|---------|--------|---------|--------|------------|
G|-7--9--11|--------|-7--9--11|--------|-9--11--9|--------|-11--12--11-|
D|---------|--------|---------|--------|---------|--------|------------|
A|---------|--------|---------|--------|---------|--------|------------|
E|---------|--------|---------|--------|---------|--------|------------|


INTRO MELODY (0:30 - 0:41):

      (Part 1)
e|-7---------------|
B|---7-8-7-5-7-8-7-|
G|-----------------| (4x)
D|-----------------|
A|-----------------|
E|-----------------|


CHORUS (0:41 - 1:21):
(The Chorus has multiple things going on at once.
The intro melody is being played at the same time in the background.
Listen to the original song to find out where things go.
It is too hard to explain through a tab, but it is easy to hear.
I will just inform you of the parts that are in the chorus.
You will have to find out where they go on your own... sorry, pal)


(This part right below, I'm not 100% sure about)
e|---------|---------|----------|----------|
B|---------|---------|----------|----------|
G|-7-------|-7-------|-6--------|-11-------| (2x)
D|-0-------|-9-------|-7--------|-12-------|
A|---------|---------|----------|----------|
E|---------|---------|----------|----------|

              (Tremolo Picking)
e|---------|---------|-----------|----------|
B|---------|---------|-----------|----------|
G|-7-----9-|-6-------|-12-----14-|-11-------| (Play On second time of the above)
D|---------|---------|-----------|----------|
A|---------|---------|-----------|----------|
E|---------|---------|-----------|----------|

(The section below is going to be played at the same time as the
section above. Figure out where they go by listening to the song)

      (Part 1)
e|-7---------------|
B|---7-8-7-5-7-8-7-|
G|-----------------| (4x)
D|-----------------|
A|-----------------|
E|-----------------|

      (Part 2)
e|-5---------------|
B|---7-8-7-5-7-8-7-|
G|-----------------| (4x)
D|-----------------|
A|-----------------|
E|-----------------|

      (Part 1)
e|-7---------------|
B|---7-8-7-5-7-8-7-|
G|-----------------| (4x)
D|-----------------|
A|-----------------|
E|-----------------|

      (Part 2)
e|-5---------------|
B|---7-8-7-5-7-8-7-|
G|-----------------| (4x)
D|-----------------|
A|-----------------|
E|-----------------|


VERSE (1:21 - 2:00):

e|---------|--------|---------|--------|---------|--------|------------|
B|---------|--------|---------|--------|---------|--------|------------|
G|-7--9--11|--------|-7--9--11|--------|-9--11--9|--------|-11--12--11-| (2x)
D|---------|--------|---------|--------|---------|--------|------------|
A|---------|--------|---------|--------|---------|--------|------------|
E|---------|--------|---------|--------|---------|--------|------------|


CHORUS (2:00 - 2:20):

              (Palm Muting)
e|------------------------------------------|
B|------------------------------------------|
G|-7--7-9--9-11--11-6----7--7-9--9-12--12-6-|
D|------------------------------------------|
A|------------------------------------------|
E|------------------------------------------|

           (Still Palm Muting)
e|--------------------------------------|
B|--------------------------------------|
G|-12--12-11--11-9--9-7----6--6-7-12-11-|
D|-----------------------------

Try chords – Thelonius Monster

 Amazing how many great songs are very easy to play :-)

(intro)

 A  -  D  -  C  -  G  2X

(verse:  D  -  A  -  C  -  G )

         D A 
Well I never paid the rent
        C G 
And I ain't never paid no telephone bill...

(chorus:  D  -  C  -  G  -  C )

 C G D 
I don't know if I'm gonna eat today
      C 
But I'm gonna try
 G C D 
I'm gonna try try try try try try try try...

Listen to the song, repeat as necessary

Try Not To Die Tabs by Naxxerian

 This Song Is Sick,... its in Drop-C.

Intro:

-------------------------------------------------------------------------|
-------------------------------------------------------------------------|
-------------------------------------------------------------------------|
-------------------------------------------------------------------------|
-0-0---------------------0-0---------------------0-0---------------------|
-2-2--0-2-0-2-3--0-2-0-2-2-2--0-2-0-2-3--0-2-0-2-2-2--0-2-0-2-3--0-2-0-2-|

------------|
------------|
------------|
------------|   Whole Thing X2
-3*--5*-2*--|
---3------3-|

Verse Riff:

-------------------------------------------------------------------------|
-------------------------------------------------------------------------|
-------------------------------------------------------------------------|
-------------------------------------------------------------------------|
-0-0---------------------0-0---------------------0-0---------------------|
-2-2--0-2-0-2-3--0-2-0-2-2-2--0-2-0-2-3--0-2-0-2-2-2--0-2-0-2-3--0-2-0-2-|
pm.......................................................................
------------|
------------|
------------|
------------|   Whole Thing X2
-3*--5*-2*--|
---3------3-|

Pre Chorus Fill (Drum solo part):

--------------------------------|
--------------------------------|
--------------------------------|
--------------------------------|
-0-0------0-0------0-0------0-0-|
-2-2------2-2------2-2------2-2-|

Chorus:

----------------------|
----------------------|
----------------------|
-7--7-7--7--5--5-5--5-| x4
-5--5-5--5--3--3-3--3-|
----------------------|

Breakdown:

------------------------------------------------------------------|
------------------------------------------------------------------|
------------------------------------------------------------------|
------------------------------------------------------------------| X8
---------------------------3-5-2-------------------------3-5-2----|
-0-0-0-0-2-0-0-3-0-0-2-0-0--3---3~-0-0-2-0-0-3-0-0-2-0-0--3---3~--|
pm......   pm..  pm..  pm..        pm..  pm.   pm..  pm..

Ed Ames – Try To Remember chords

 Try To Remember:Ed Ames.
#73 on BB Hot 100 on RCA Records in
1965.

INTRO:  F Fm F .. Bb C F ..

#1.
 Fm F A F Bb C F Dm
Try to remember the kind of September When life was slow
 F Bb C
and oh, so mellow.
 Fm F Bb C F
Try to remember the kind of September When grass was green
     Bb C
and grain was yellow.
 Am Dm Bb C F Bb
Try to remember the kind of September When you were a tender
     Eb C
and callow fellow.
 F A F Bb C F Bb C
Try to remember, and if you remember, then follow.

#2.
 F Bb C Bbm C Db F Bb
Try to remember when life was so tender, that no  one wept, except
     C
the willow.
 F Bb C F Bb
Try to remember when life was so tender, that dreams were kept
   Bb C
beside your pillow.
 Am C Dm Bb F Bb
Deep in December it's nice to remember the fire of September that
 F Eb C
made us mellow.

OUTRO:
 F Bb C F# Em F
Deep in December it's nice to remember..and fol..low.

 Bb Dm F C Bb Am Bb F ..


A sixties smash from Kraziekhat.

Try chords – Simple Plan V2

 chords - AdamD

Capo 1st fret


[Verse]
        E B A 
I've never been the best at honesty,
            E B A 
I've made more mistakes than I can even count,
                      E B A 
But things are gonna be so different now,
                   C#m B A 
You make me wanna turn it all around.


[Verse]
I think of all the games that I have played,
The unsuspecting people that I've heard,
Deep inside I know I don't deserve,
Another chance to finally make it work.


[Chorus]
           E B 
But I'll try, to never disappoint you,
      C#m A      
I'll try, until I get it right,
        E B      
I've always been so reckless, all of my life,
           C#m B A 
But I'll try,
       E 
For you.


[Verse]
I've been the best at letting people down,
I've never been the kind of person you can trust,
But if you can give me half a chance I'll show,
How much I can fix myself for you.


[Chorus]


[Bridge]
  B A 
This time I wont make up excuses (Cause I don't wanna lose you),
   B A 
Don't give up on me and I'll prove that,
I can do this!


[Chorus]

Every Time I Try chords – Spain

 Spain - Every Time I Try (Waronker, Anna Jeanette)

standard tuning, chords used:
 B E G#m F#  
224442 022100 466444 244322

Intro:  B 

Verse: 
 B E 
I want to hold you
                       G#m 
But every time I try
                            B 
Something keeps you out of reach. 
                      E 
I want to love you
                      G#m 
But every time I try
                       E 
Something keeps love away, and I can feel it.

Chorus:
 E G#m 
So love me right now, 
                 B 
Though it won't last. 
                    F# 
Girl don't make me try,
                            E B 
'Cause I'll lose you forever, every time, every time. 

Verse:
 B E 
And every time I try
                                  G#m 
To put our love out like a fire
                      B 
You keep me in your reach. 
                       E 
And every time I try
                          G#m 
To throw away my desire
                 E 
You hold me so close, and I can feel it

Chorus:
 E G#m 
So love me right now,
                 B 
Though it won't last.
                    F# 
Girl don't make me try, 
                            E B 
'Cause I'll lose you forever, every time, every time. 

Solo:  B E G#m B B E G#m E 

Chorus:
 E G#m 
So love me right now, 
                 B 
Though it won't last. 
                    F# 
Girl don't make me try,
                             E 
'Cause I'll lose you forever, 
 E G#m 
So love me right now, 
                 B 
Though it won't last. 
                    F# 
Girl don't make me try,
                            E 
'Cause I'll lose you forever, every time, every time.




----------------------------------------------------------------------------
This is the 1997 version from the soundtrack to 'The End Of Violence' by Wim Wenders.
I couldn't believe this wasn't on UG - so I did it, my first one. Thanks to my big love!
Hope you like it! Claymedia, 27 Oct 13.