Tag: Tuning

Fields Of Athenry chords – Dropkick Murphys V5

 I have taken a little time to do a version of this, there are several posted but none are complete. 
By far the simplest way to play this is is to tune down a semi tone to Eb, you can of course leave
your guitar in standard tuning and transpose down (-1 on the auto transpose on the left of your screen)
giving you Eb Ab Bb and Cm if you wish. Song is in the key of Eb (something to do with bagpipe tuning)
Comments and suggestions welcome, please rate

INTRO:  B E B 

VERSE 1:
      E A E B E A B 
By a lonely prison wall, I heard a young girl calling, Micheal they have taken you away
         E A E B E                        
For you stole Trevelyn's corn, so the young might see the morn, now a prison ship lies waiting in the bay

CHORUS:
 E A E C#m E C#m B 
Low, lie, the fields of Athenry, where once we'd watch the small free birds fly
     E A E B E B E 
Our love was on the wing, we had dreams and songs to sing, it's so lonely round the fields of Athenry

VERSE 2:
      E A E B E A B 
By a lonely prison wall, I heard a young man calling, nothing matters Mary when you're free
             E A E B E  
Against the famine and the crown, I rebelled they cut me down, now you must raise our child with dignity

CHORUS:
 E A E C#m E C#m B 
Low, lie, the fields of Athenry, where once we'd watch the small free birds fly
     E A E B E 
Our love was on the wing, we had dreams and songs to sing, it's so lonely round the fields of Athenry

CHORUS: (without vocals)  E A E C#m E C#m B E A E B E B E 

VERSE 3:
      E A E B E A B 
By a lonely harbour wall, she watched the last star falling, as the prison ship sailed out against the sky
             E A E B E 
Sure she'll wait and hope and pray for her love at Botany Bay, it's so lonely round the fields of Athenry

BAGPIPE SOLO: No Chords then  E A E B                                         E
                                      it's so lonely round the fields of Athenry

CHORUS:
 E A E C#m E C#m B 
Low, lie, the fields of Athenry, where once we'd watch the small free birds fly
     E A E B E 
Our love was on the wing, we had dreams and songs to sing, it's so lonely round the fields of Athenry

Ending:  B A E

All I Ever Wanted chords – Brian Melo V6

 Brian Melo - All I Ever Wanted
Tuning: Standard (E A D G B E)
Key: C# major (C# D# E# F# G# A# B# C#) with A capo on the first fret, 
 C  major (C  D E F G A B  C) without
Tempo: 169 bpm
 Robert from Astlessons
Link to my tutorial on YouTube: http://youtu.be/UZSXXbpuBZk

No disrespect intended towards previous uploaders, there has been some good transcriptions, 
but there is a few chords/details that I felt needed clarification in a new version. But not 
that it matters too much of course, just play the one you think sounds best:D



[Intro]:  C Cmaj7 F C Cmaj7 F C Cmaj7 F C Cmaj7 F 
Slow down, make it last, I'm having the time of my life
      C Cmaj7 F Dm F 
And take a photograph, I don't wanna leave this behind
       C Cmaj7 F C Cmaj7 F 
What seems so out of reach, we're holding it right in our hands
        C Cmaj7 F Dm F 
Let's give up everything, let's jump in and never look back
        Dm F G 
Let's jump in and never look back

         F C G F C G      (A5 G5)
This is all I ever wanted, but life got in my way
        F C G Am F C G 
You're all I ever wanted, I didn't see how it could change
       F C G F 
That something was missing until today

      C Cmaj7 F C Cmaj7 F 
The city comes alive, as soon as you walk through the door
   C Cmaj7 F Dm F 
Another sleepless night, but I don't wanna sleep anymore
    Dm F G 
I don't wanna sleep anymore

         F C G F C G      (A5 G5)
This is all I ever wanted, but life got in my way
        F C G Am F C G 
You're all I ever wanted, I didn't see how it could change
       F C G Am 
That something was missing until today

(Am)          F C G Am 
Climbing so high, just don't look down, we can see everything from here
                 F C G F 
For once in my life, feet off the ground, don't wanna come back down

     C Cmaj7 F C Cmaj7 F 
So take a photograph, we're having the time of our lives

          C G F C G      (A5 G5)
This is all I ever wanted, but life got in my way
        F C G Am F C G 
You're all I ever wanted, I didn't see how it could change
         F C G F C G   (A5 G5)
This is all I ever wanted, nothing will get in the way
        F C G Am F C G 
You're all I ever wanted, I knew it, somehow it could change
            F C G F 
I d

Hey Mario Tabs by Patent Pending

 -------------------------------------------------------------------------------
                             HEY MARIO - Patent Pending
-------------------------------------------------------------------------------
: Joe Doul

Tuning: Standard

This is based on the brilliant tab by PlainOlBrod, but with the power chords tabbed out:

************************************

Verse
e|---------------------------------|
B|---------------------------------|
G|-----9-9-7---7-7-----9-9-7---7-7-|
D|-7---9-9-7---7-7-7---9-9-7---7-7-|
A|-7---7-7-5---5-5-7---7-7-5---5-5-|
E|-5---------------5---------------|


Chorus
e|---------------------------------------------------------------------------|
B|---------------------------------------------------------------------------|
G|-77----99------77----99-99---77----99----44444444-77777--------------------|
D|-77-77-99-44---77-77-99-99---77-77-99-44-44444444-77777--------------------|
A|-55-77-77-44---55-77-77-77---55-77-77-44-22222222-55555--------------------|
E|----55----22------55------------55----22-----------------------------------|


Verse
e|---------------------------------|
B|---------------------------------|
G|-----9-9-7---7-7-----9-9-7---7-7-|
D|-7---9-9-7---7-7-7---9-9-7---7-7-|
A|-7---7-7-5---5-5-7---7-7-5---5-5-|
E|-5---------------5---------------|


Chorus
e|---------------------------------------------------------------------------|
B|---------------------------------------------------------------------------|
G|-77----99------77----99-99---77----99----44444444-77777--------------------|
D|-77-77-99-44---77-77-99-99---77-77-99-44-44444444-77777--------------------|
A|-55-77-77-44---55-77-77-77---55-77-77-44-22222222-55555--------------------|
E|----55----22------55------------55----22-----------------------------------|


Bridge
e|---------------------------------------------------------------------------|
B|---------------------------------------------------------------------------|
G|----77-99-99------77-99-99------77-99------44444444-77777------------------|
D|-77-77-99-99---77-77-99-99---77-77-99-44---44444444-77777------------------|
A|-77-55-77-77---77-55-77-77---77-55-77-44---22222222-55555------------------|
E|-55------------55------------55-------22-----------------------------------|


Chorus
e|---------------------------------------------------------------------------|
B|---------------------------------------------------------------------------|
G|-77----99------77----99-99---77----99----44444444-77777--------------------|
D|-77-77-99-44---77-77-99-99---77-77-99-44-44444444-77777--------------------|
A|-55-77-77-44---55-77-77-77---55-77-77-44-22222222-55555--------------------|
E|----55----22------55------------55----22-----------------------------------|


************************************

Break Away Speed chords – Kim Richey

 -------------------------------------------------------------------------------
                       BREAKAWAY SPEED - Kim Richey
-------------------------------------------------------------------------------
: rdcoons
 gnr123
Tuning: Half-Step Down

Intro: A
[Verse 1]
 A D A 
She could've made a river, but she had to make rain
                                  D A 
Once it started falling, it was never the same
 E D A 
Forty days running, forty nights long
 E D A E 
Water kept on coming till the valleys were gone... gone

[Chorus]
     D A E 
She said it's alright, took me where she left me
  A E F#m 
Turned around, went away, breakaway speed
   D A E 
Never looked back, said she won't forget me
  A E F#m 
Turned around, went away, breakaway speed
  D A 
Breakaway speed

[Verse 2]
 ( A )                          D A 
Would've come running but I couldn't keep up
                                  D A 
She counted all her blessings but it wasn't enough
            E D A 
They were hiding in the shadows where it's never quite clear
 E D A 
She wants something better that she couldn't find here
          E 
Couldn't find here

[Chorus]
     D A E 
She said it's alright, took me where she left me
  A E F#m 
Turned around, went away, breakaway speed
   D A E 
Never looked back, said she won't forget me
  A E F#m 
Turned around, went away, breakaway speed
  D A 
Breakaway speed

[Solo]
 A D A  x2

[Bridge]
   E A E A 
I think of her, when the sun goes down
      E A D E 
and falls behind, the edge of town

 D E  x2

[Chorus]
     D A E 
She said it's alright, took me where she left me
  A E F#m 
Turned around, went away, breakaway speed
   D A E 
Never looked back, said she won't forget me
  A E F#m 
Turned around, went away, breakaway speed
  D A 
Breakaway speed
  D A 
Breakaway speed
  D A 
Breakaway speed

 D A 


-------------------------------------------------------------------------------
                       BREAKAWAY SPEED - Kim Richey
-------------------------------------------------------------------------------
Tuning: Standard 
Capo 4

Intro:  E 
[Verse 1]
 E A E 
She could've made a river, but she had to make rain
                                  A E 
Once it started falling, it was never the same
 B A E 
Forty days running, forty nights long
 B A E B 
Water kept on coming till the valleys are gone... gone

[Chorus]
     A E B 
She said it's alright, took me where she left me
  E B C#m 
Turned around, went away, breakaway speed
   A <spa

Ho-hum Tabs by Pinback

 -------------------------------------------------------------------------------
                             Ho HUM - Pinback
-------------------------------------------------------------------------------
: Justin
sdjustinr

Tuning: drop D (D A D G B E)

Note: Not 100% (not even 80%) but this is how I play it and it sounds good to me  Enjoy.


"You need to fuckin' get down here!"


    |       |        |       |
e|--------------------------------------|
B|------3-------3----------------------.|
G|--------4-------3----0----------------|
D|----4-------3----------4---5p4---4----|
A|--2-------1--------------5-----5-----.|
E|-------------------0------------------|


   "It's a fact, I know it.."




     |     |     |     |
e|------------------------------|
B|------3-----2-----8-----8----.|
G|------4-----2-----9-----9-----|
D|------4-----4-----9--7--9-----|
A|---2-----0-----7-------------.|
D|------------------------------|

   "No one's gonna take the pair..."


      |       |       |       |
e|----------------------------------------|
B|----------------------------------------|
G|----------------------------------------|
D|--------0h7-----0h7-----0h7-------------|
A|------5-------5-------5-------5-4h5p4---|
E|----0-----------------------------------|



     |       |       |       |
e|------------------------------------|
B|---------------------------0-0-0---.|
G|---------------------------0-0-0----|
D|---4-4-4-4-4-5-9\7-4-4-4---4-4-4----|
A|---0-0-0-0-0-------2-2-2-----------.|
D|---0-0-0-0-0-------2-2-2---5-5-4----|


   "I want to breathe in blue"




************************************

| /   slide up
| \   slide down
| h   hammer-on
| p   pull-off
| ~   vibrato
| +   harmonic
| x   Mute note
| b   Bend
| pb  Pre-bend
| br  Bend release
| pbr Pre-bend release
| brb Bend release bend

**********************************

Runaway Baby Tabs by Bruno Mars V5

 RUNAWAY BABY - BRUNO MARS 
Tuning: 1/2 step down!!
Enjoy playing!

INTRO + VERSE 1
E-------------------------|-------------------------|
B-------------------------|-------------------------|
G-------------------------|-------------------------|
D-------------------------|-------------------------| 
A---7-5-7-----------------|---7-5-7-----------------|
E-0-------6-5-5-3-5-7-5-3-|-0-------6-5-5-3-5-7-5-3-|

E-------------------------|-------------------------|
B-------------------------|-------------------------|
G-------------------------|-------------------------|
D-------------------------|-------------------------| 
A---7-5-7-----------------|---7-5-7-----------------|
E-0-------6-5-5-3-5-7-5-3-|-0-------6-5-5-3-5-7-5-3-|

E-------------------------|-------------------------|
B-------------------------|-------------------------|
G-------------------------|-------------------------|
D-------------------------|-------------------------| 
A---7-5-7-----------------|---7-5-7-----------------|
E-0-------6-5-5-3-5-7-5-3-|-0-------6-5-------------|

PRE-CHORUS
E -----------------------------|-----------------------------|
B -----------------------------|-----------------------------|
G ---9-7-9---------------------|---9-7-9---------------------|
D ---------8-7-7----7-9-7------|---------8-7-7----7-9-7------|
A -7-------------10-------10---|-7-------------10-------10---|
E -----------------------------|-----------------------------|

E -----------------------------|-----------------------------|
B -----------------------------|-----------------------------|
G ---9-7-9---------------------|---9-7-9---------------------|
D ---------8-7-7----7-9-7------|---------8-7-----------------|
A -7-------------10-------10---|-7---------------------------|
E -----------------------------|-----------------------------|

CHORUS (strummed, these are just the chords) 
E -8----7----7----5----|-8----7----7----5----|-8----7----7----5----|-8----7-|
B -8----7----8----5----|-8----7----8----5----|-8----7----8----5----|-8----7-|
G -9----8----9----6----|-9----8----9----6----|-9----8----9----6----|-9----8-|
D -10---9----9----7----|-10---9----9----7----|-10---9----9----7----|-10---9-|
A -10---9----7----7----|-10---9----7----7----|-10---9----7----7----|-10---9-|
E -8----7----7----5----|-8----7----7----5----|-8----7----7----5----|-8----7-|

INTERLUDE
E-------------------------|-------------------------|
B-------------------------|-------------------------|
G-------------------------|-------------------------|
D-------------------------|-------------------------| 
A---7-5-7-----------------|---7-5-7-----------------|
E-0-------6-5-5-3-5-7-5-3-|-0-------6-5-5-3-5-7-5-3-|

VERSE 2
E --------------------------------|--------------------------------|
B --------------------------------|--------------------------------|
G --------------------------------|--------------------------------|
D ------------5-6-7---------------|------------5-6-7---------------|
A ---5-6-7--7---------------------|---5-6-7--7---------------------|
E -7------------------------------|-7------------------------------| 

E --------------------------------|--------------------------------|
B --------------------------------|--------------------------------|
G --------------------------------|--------------------------------|
D ------------5-6-7---------------|------------5-6-7---------------|
A ---5-6-7--7---------------------|---5-6-7--7---------------------|
E -7------------------------------|-7------------------------------| 

PRE-CHORUS
E -----------------------------|-----------------------------|
B -----------------------------|-----------------------------|
G ---9-7-9---------------------|---9-7-9---------------------|
D ---------8-7-7----7-9-7------|---------8-7-7----7-9-7------|
A -7-------------10-------10---|-7-------------10-------10---|
E -----------------------------|-----------------------------|

E

Care chords – Joel Faviere

 Tuning: Standard

              F G Am C 
Do you still care or do I sit here, running in place, with my hands in my hair?

     F G Am C 
And what if I said my friends hate my guts, cause all I talk about is how it was?

 F ,  G ,  Am ,  C F G Am C 
So do you still care that I still wonder who you're with and where?

 F G Am C 
I just want to speak, ask you how are things, I just want to sleep, come lay next to me.

 F G Am C 
Do you still care, or do I sit here hoping for love that won't ever come near?
 F G Am C 
And what if I said my friends hate my guts, cause I all ever talk about is love?

 F G Am C 
Do you still care that I still wonder who you're with and where?
 F G Am C 
I cannot sleep, barely speak, when I make myself sing-and cut, does this sting?

 F G Am C 
Then I do not care, who you're with and where your eyes may stare.
 F G Am C 
I mean, I'll try not to care, but I don't think I would survive out there.

 F G Am C 
And do you still care, that I still wonder who you're with and where?

              F G  
That I still wonder who you're with and where,
             Am               (no chord)          
That I still wonder who you're with and where.

 F Am C 
     Why do I still wonder who you're with and where?
 F Am C 
     Why do I still wonder who you're with and where?

Mind Control Tabs by Harms Way

 -------------------------- Mind Control – Harms Way----------------------------
: RapingZombies
Tuning: Drop  B (B Gb B E Ab Db)
Email: mario1@live.com.au   Email me if you see any mistakes so I can fix them.

Key:
| /  slide down
| ~  vibrato
| *  harmonic
| . palm mute

Intro 
Db|------------------------------------------------------|
Ab|------------------------------------------------------|
E |------------------------------------------------------|     
B |-4----0----------------------------444455554444-------|
Gb|-4----0--------555566665555---------------------------|
B |-4----0-----------------------------------------------| X4 
on the 4th time instead of 4 5 4 do this:

Db|--------------------------------------|
Ab|--------------------------------------|
E |--------------------------------------|     
B |--------------------------------------|
Gb|---5-6-5-------4---7---3---4---1---3--|
B |-----------7---4---7---3---4---1---3--|
                  .   .   .   .   .   .   
 
Db|--------------------------------------------------|
Ab|--------------------------------------------------|
E |--------------------------------------------------|     
B |---0-----------0-----------0----------------------|
Gb|0--0-----0--0--0-----0--0--0------0---5-6-5-------|
B |0--0-----0--0--0-----0--0--0------0-----------7---|
   .        .  .        .  .         .
Db|----------------------------------------|
Ab|----------------------------------------|
E |----------------------------------------|     
B |---0-----------0------------------------|
Gb|0--0-----0--0--0------555566665559999---|
B |0--0-----0--0--0------------------------|
   .        .  .             
Db|-------------------------------------------------|
Ab|-------------------------------------------------|
E |-------------------------------------------------|     
B |---0-----------0-----------0---------------------|
Gb|0--0-----0--0--0-----0--0--0------0---5-6-5------|
B |0--0-----0--0--0-----0--0--0------0-----------7--|
        .            .     .             .   .               .
Db|---------------------------------------------|
Ab|---------------------------------------------|
E |---------------------------------------------|     
B |---0-----------0-------------------44445555--|
Gb|0--0-----0--0--0------55556666---------------|
B |0--0-----0--0--0-----------------------------|
   .        .  .             


Db|----------------------------------------------------|
Ab|----------------------------------------------------|
E |----------------------------------------------------|     
B |---0-----------0-----------0------------------------|
Gb|0--0-----0--0--0-----0--0--0------0---5-6-5---------|
B |0--0-----0--0--0-----0--0--0------0-----------7-----|
   .        .  .        .  .         .
Db|---------------------------------------|
Ab|---------------------------------------|
E |---------------------------------------|     
B |---0-----------0-----------------------|
Gb|0--0-----0--0--0------555566665559999--|
B |0--0-----0--0--0-----------------------|
   .        .  .             
Db|--------------------------------------------------------|
Ab|--------------------------------------------------------|
E |--------------------------------------------------------|     
B |---0-----------0-----------0----------------------------|
Gb|0--0-----0--0--0-----0--0--0------0---5-6-5-------------|
B |0--0-----0--0--0-----0--0--0------0-----------7---------|
   .        .  .        .  .         .

Db|----------------------------------|
Ab|----------------------------------|
E |----------------------------------|     
B |---0-----------0------------------|
Gb|0--0-----0--0--0------------------|
B |0--0-----0--0--0----0-------------|
   .        .  .  

Db|---------------------------------------------------------------|
Ab|---------------------------------------------------------------|

Dont Matter Tabs by Kings Of Leon

 Kings Of Leon - Don't Matter
Tuning: Standard

e|-----------------------------------------------------------------|
B|-----------------------------------------------------------------|
G|-----------------------------------------------------------------|
D|-12---------11---------4-----------------------------------------|
A|-12---------11---------4-----------------------------------------|
E|-10---------9----------2-----------------------------------------|
 |
e|-----------------------------------------------------------------|
B|-----------------------------------------------------------------|
G|-----------------------------------------------------------------|
D|-12---------11--------3/4----------------------------------------|
A|-12---------11--------x/4----------------------------------------|
E|-10---------9---------1/2----------------------------------------|


e|-----------------------------------------------------------------|
B|-----------------------------------------------------------------|
G|-----------------------------------------------------------------|
D|-7---------6---------4-------------------------------------------|
A|-7---------6---------4-------------------------------------------|
E|-5---------4---------2-------------------------------------------|
 |
e|-2-2------2-2--------2-2-----------------------------------------|
B|-3-3------3-3--------3-3-----------------------------------------|
G|-----------------------------------------------------------------|
D|-----------------------------------------------------------------|
A|-----------------------------------------------------------------|
E|-----------------------------------------------------------------|


e|-----------------------------------------------------------------|
B|-----------------------------------------------------------------|
G|-----------------------------------------------------------------|
D|-12---------11---------4-----------------------------------------|
A|-12---------11---------4-----------------------------------------|
E|-10---------9----------2-----------------------------------------|
 |
e|-----------------------------------------------------------------|
B|-----------------------------------------------------------------|
G|-----------------------------------------------------------------|
D|-12---------11--------3/4----------------------------------------|
A|-12---------11--------x/4----------------------------------------|
E|-10---------9---------1/2----------------------------------------|


e|-----------------------------------------------------------------|
B|-----------------------------------------------------------------|
G|-----------------------------------------------------------------|
D|-7---------6---------4-------------------------------------------|
A|-7---------6---------4-------------------------------------------|
E|-5---------4---------2-------------------------------------------|
 |  
e|-2-2------2-2--------2-2-----------------------------------------|
B|-3-3------3-3--------3-3-----------------------------------------|
G|-----------------------------------------------------------------|
D|-----------------------------------------------------------------|
A|-----------------------------------------------------------------|
E|-----------------------------------------------------------------|


e|---17---17-------------------------------------------------------|
B|-17^-17^--17^-17-14--14------------------------------------------|
G|-------------------16-------14-1515v-14-1515^-14-----------------|
D|-----------------------16----------------------------------------|
A|-----------------------------------------------------------------|
E|-----------------------------------------------------------------|
1:35

e|-------------------------------------------------14h17p14-------------------|
B|-7h10p7-7-7-1010^10^10^107h1010^/12^/

Little Knife Tabs by Ian Clement

 Capo 4
Tuning: DADGBe (Drop D)

Intro/Verse

e||--------------------------------------------------|
B||--------------------------------------------------|
G||----------0-----0---------------------------------|
D||----0-------0-----0---0-----0-----0-----0-----0---|
A||------0-3-----2---------0-----0-----0-----0-----0-|
D||--0-----------------5-----3-----2-----3-----0-----|

Repeat this until the chorus starts

Chorus (listen to the song for the right strumming pattern)

e||--1---1--111---x---x--xxx----x----x---x-x-x----x----x---x-x-x-|
B||--3---3--333---3---3--333---10---10--101010----9----9---9-9-9-|
G||--2---2--222---4---4--444---11---11--111111---10---10--101010-|
D||---------------5---5--555---12---12--121212---11---11--111111-|
A||---------------5---5--555---12---12--121212---11---11--111111-|
D||---------------5---5--555---12---12--121212---11---11--111111-|

e||--x---x--xxx----------------3-3-3/5-5-5-||
B||--1---1--111----------------1-1-1/3-3-3-||
G||--2---2--222----------------------------||
D||--3---3--333---2---2--222---------------||
A||--3---3--333---2---2--222---------------||
D||--3---3--333---2---2--222---------------||

In the solo bit you can try something with this chords! Enjoy!

One Life chords – Justin Bieber V3

 SONG: One Life
ARTIST: Justin Bieber
 Journals (2014)

TUNING: Drop D (low to high: DADGBe)

CAPO: 1st fret

***CHORDS/TABS ARE IN RELATION TO CAPO***

CHORDS:
   F#maj7 G#sus4 C#maj9   D#min9
e|---0---|---x---|---x---|---0---||
B|---1---|---3---|---0---|---1---||
G|---2---|---5---|---5---|---2---||
D|---2---|---5---|---5---|---3---||
A|---x---|---3---|---x---|---x---||
D|---3---|---x---|---5---|---0---||

These are the only four chords played in the song, and they are in this order 
throughout. Hope this helps!



***LYRICS***

INTRO:
So girl
You just be honest with me, I know we can make this work
I love you

VERSE 1:
I know that you afraid, babe
But you don't need to be saved, babe
You just need someone who understands
And I think I need the same, babe
Show me where you at, let's keep it honest
Home is where you at and that's a promise
Open up and never keep it from us
Nothing left between us, baby, nothing
Tell me what you want, let's keep it gangsta
Tell me who created you, I'd thank her
Open up and never keep it from us
Nothing left between us, baby

PRE-CHORUS:
Hopefully you'll give me a chance
All I want is love and romance
I wanna give it all, give it all to you

CHORUS:
I wanna dream what you dream
Go where you're going
I only have one life
And I only wanna live it with you
I wanna sleep where you sleep
Connect with your soul
The only thing I want in life
I only wanna live it with you
Oh yeah, oh yeah
I only wanna live it with you
Only wanna live it with you

VERSE 2:
Tell me what you want, I can't believe it
I know that if we make it there's a reason
Sometimes the sun shines, baby
Sometimes the... ain't breezy
I hope that maybe this time it may be different
I told you I'm a make it, that commitment
Yeah, you took your shot and didn't miss it
Ain't nothing more attractive than ambition

[PRE-CHORUS]

[CHORUS]

BRIDGE
If I came to your crib would you open the door?
I don't wanna go down that road no more
Said you wanted it bad, but girl I wanted it more
You're the only one I wanna be with, yeah, yeah

[CHORUS]

Daydream Tabs by Smashing Pumpkins V4

 Smashing Pumpkins - Daydream
 FUDGEcenter

Tuning: E A D F# B D CAPO on 2nd fret




  My daydream seems
D |-0--0--0--0-|
B |-0--0--0--5-|
F#|-5--5--5--5-|
D |-0--0--4--0-|
A |-4--6--0--4-|
E |----------5-|


  as one inside of you
D |-0--0--0----|
B |-0--0--5----|
F#|-5--5--5----|
D |-0--0--0----|
A |-4--0--4----|
E |-0--4--5----|

That's pretty much it.. just listen to the song.

  @1:26 (Billy Plays this live)
D |-0--0--0-----------|
B |-5--4--0---0--0----|
F#|-----------5--3----|
D |--------------0----|
A |-------------------|
E |-------------------|

Until We Bleed chords – Lykke Li V3

 Tuning: Standard (EADGBe)
No capo

 Em 
I'm naked
 D 
I'm numb
 C 
I'm stupid
I'm staying

 Em 
And if Cupid's
 D 
got a gun
 C 
Then he's shootin'


 Em 
Lights black
 D 
Heads bang
 C 
You're my drug
We live it
 Em 
You're drunk,
 D 
you need it
 C 
Real love,
I'll give it

 Em D C 
So we're bound to linger on
 Em D C 
We drink the fatal drop
          Em D C 
Then love until we bleed
         Em D C 
Then fall apart in parts

(use the same chords throughout the rest of the song)

You wasted your times
On my heart
You've burned
And if bridges gotta fall
Then you'll fall too

Doors slam
Lights black
You're gone
Come back
Stay gone
Stay clean
I need you to need me

So we're bound to linger on
We drink the fatal drop
Then love until we bleed
Then fall apart in parts

Now we're bound to linger on
We drink the fatal drop
Then love until we bleed
Then fall apart in parts

Lower The Heavens Tabs by The Donkeys

 -------------------------------------------------------------------------------
                             Lower The Heavens - The Donkeys
-------------------------------------------------------------------------------
: guitar zeer0
 PM me if you feel the need

Tuning: Standard 

The notes begin about a minute into the song. I tried to space it out in 

accordance with the rhythm. The spacing isn't exact but it'll give you a general 

idea.  ear. , enjoy!
 
[Chorus] (x2)
e|---------------------------------------------------------------------------|
B|------1---1---1h3-------1-3-4b3-1-------1---1---1h3-------1-3-4b3-1--------|
G|--0h2---2---2-------0h2-------------0h2---2---2-------0h2------------------|
D|---------------------------------------------------------------------------|
A|---------------------------------------------------------------------------|
E|---------------------------------------------------------------------------|

e|----------0-----------------0-----------------0-------0-----0-----0--------|
B|------1-------1---------1-------1---------1-------1-----1-----1-----1------|
G|--0h2---2---2---2---0h2---2---2---2---0h2---2---2---2-----2-----2----------|
D|---------------------------------------------------------------------------|
A|---------------------------------------------------------------------------|
E|---------------------------------------------------------------------------|

[Bridge]
e|--3-----3-----3-----3-----3-----3-0-----0-----0-----0-----0-----0----------|
B|----1-----1-----1-----1-----2-------1-----1-----1-----1-----1--------------|
G|------2-----2-----2-----2-----1-------2-----2-----2-----2-----2------------|
D|---------------------------------------------------------------------------|
A|---------------------------------------------------------------------------|
E|---------------------------------------------------------------------------|

e|--1-----1-----1-----1-----1-0-----0-----0-----3-1-0------------------------|
B|----1-----1-----1-----1-------1-----1-----1---------3-1-0-1--0-1-0-2/3-----|
G|------2-----2-----2-----2-------2-----2-----2------------------------------|
D|---------------------------------------------------------------------------|
A|---------------------------------------------------------------------------|
E|---------------------------------------------------------------------------|

e|----------------------------------------3-1-0------------------------------|
B|--0-1--0-1-0-2/3---0-1--0-1-0-2/3--0-1--------3-1-0-1--0-1-0-2/3-----------|
G|---------------------------------------------------------------------------|
D|---------------------------------------------------------------------------|
A|---------------------------------------------------------------------------|
E|---------------------------------------------------------------------------|

e|---------------------------------------------------------------------------|
B|--0-1--0-1-0-2/3--0-1--0-1-0-2/3--1-0-1-0----------------------------------|
G|------------------------------------------2-----0--------------------------|
D|--------------------------------------------0h2---2------------------------|
A|---------------------------------------------------------------------------|
E|---------------------------------------------------------------------------|

[Repeat Chorus]

[Solo]
e|---------------------------------------------------------------------------|
B|---------------------------------------------------------------------------|
G|--7b---9-9\7--7-7--7-7-----------------------------------------------------|
D|-----------------------10-9-7----------------------------------------------|
A|---------------------------------------------------------------------------|
E|--------------------------------10-10/12--12-12---8-8-8-8/10-10-10/12------|

e|-----------------------------------

The Blowers Daughter chords – Megan Hilty

 The Blower's Daughter by Megan Hilty (originally by Damien Rice)
 It Happens All The Time
Track 5
2013


Standard Tuning
No Capo


Chords:

 D :        xx0232
 G :        320003 or 320033
 A :        x02220
 Bm :       x24432
 F#m :      244222
 Em :       x22000
 E :        022100
 B :        x24442
 C#m :      x46654
 G#m :      466444


            D G 
 And so it is, just like you said it would be
                  A 
 Life goes easy on me
   G D 
 Most of the time

            D G 
 And so it is, the shorter story
                  A 
 No love, no glory
                  Bm 
 No hero in her sky


                  G 
 I can't take my eyes off you
                  F#m 
 I can't take my eyes off you
                  Em 
 I can't take my eyes off you
                  D 
 I can't take my eyes off you
                  G A 
 I can't take my eyes off you
                  G 
 I can't take my eyes


            D G 
 And so it is, just like you said it should be
                          A 
 We'll both forget the breeze
   G D 
 Most of the time

            D G 
 And so it is, the colder water
                        A 
 The blower's daughter
                 Bm 
 The pupil in denial


                  G 
 I can't take my eyes off you
                  F#m 
 I can't take my eyes off you
                  Em 
 I can't take my eyes off you
                  D 
 I can't take my eyes off you
                  G A 
 I can't take my eyes off you
                  G 
 I can't take my eyes


 E A 
 Did I say that I loathe you ? 
                   F#m B C#m 
 Did I say that I want to leave it all behind ?


                   A 
 I can't take my mind off you
                  G#m 
 I can't take my mind off you
                  F#m 
 I can't take my mind off you
                   E 
 I can't take my mind off you
                   A B 
 I can't take my mind off you
                   A 
 I can't take my mind, my mind

 To find somebody new

Heavy Feet chords – Local Natives V3

 Standart Tuning
Capo IV
Chords are related to capo, it sounded better for me on capo IV

from La Blogotheque performance
tabber: Oktay Atas


 F Em    
  Powder in your hair
                    C 
  Staples in your jeans
                     G  
  Fireworks at the water
              F 
  You were holy
                Em 
  A styro-foam cup
                      C 
  Held between your teeth
                                G F 
  You're telling me how you're going to - outlive your body
                     Em C G F 
  What you said I wrote it down, It wont say, It won't speak - the same
                  Em C G 
  Maybe I know better than to read more from what's written


 F C G F C G   
  After everything, after everything.
 F C G F 
  Left in the sun, shivering.
      C G F 
  After everything.

 F Em   
  Gathering your storm
                      C 
  I talk to fill the space
                           G F 
  Do you know where so and so was, when they were our age
                        Em C G 
  Then every night you seem, to talk me out of everything

 F Em C G F 
  Careful what you say next, don't waste a single drop
                    Em C G F 
  What you said I wrote it down, it wont say, it wont speak - the same

 C G  (half time  C , half time  G )
F  C  G (full time F, half time C, half time G) (same as the chorus)


 F C G F C G   
  After everything, after everything.
 F C G F 
  Left in the sun, shivering.
      C G F 
  After everything.


 Em C G F Em C G F 
  What you said I wrote it down, but wont say, wont speak - the same
                  Em C G 
  Maybe I know better than to read more than what's there


 F C G F C G   
  After everything, after everything.
 F C G F 
  Left in the sun, shivering.
      C G F 
  After everything.

Wild Free chords – A Rocket To The Moon

 Chord Wild And free - A Rocket To The Moon

Tuning: Standard 

#intro :  G C  (2x)

                     G C 
She was young
                G C 
And her daddy didn't warn her
                  G 
She had stars in her eyes,
                           C G C 
And she never gave up on California

              G C 
He was old,
                                       G C 
And not much of a dreamer
                 G 
But he knew what she wanted
                         C G C 
And there's nothing he could say that would keep her

#pre-chorus :
 D 
Sometimes, we gotta make up our own minds
 D  -  D 
And say


#chorus :
                  C D 
We can sing right along with the thunder
                    G Em 
We can be who we wanna be
                 C D 
And we'll never have to worry or wonder
            Am 
The only thing we gotta believe
 Am  -  Bm  -  C 
Is that we'll live while we're young
                 D 
And we'll do it 'cuz we're wild and free

#intro :  G C  (2x)

            G C 
He was told
                                       G C 
He was never gonna make it
                       G C 
He was wasting his time and his money
                                            G C 
On the chances he was taking

#pre-chorus :
 D 
Sometimes, we gotta make up our own minds
 D  -  D 
And say

#chorus :
                  C D 
We can sing right along with the thunder
                    G Em 
We can be who we wanna be
                 C D 
And we'll never have to worry or wonder
            Am 
The only thing we gotta believe
 Am  -  Bm  -  C 
Is that we'll live while we're young
                 D F 
And we'll do it 'cuz we're wild and free

#bridge :
                   C 
We get no time for a second chance
 F 
Freeeeeeeeeeeeeeeeeeeeee
                     C D 
We're gonna find our way and never look back

#interlude :  C D G Em C D Am 

#chorus :
                   C D 
We can sing right along with the thunder
                  G Em 
We can be who we wanna be
                    C D 
And we'll never have to worry or wonder
          Am 
The only thing we gotta believe
 Am  -  Bm  -  C D 
Is that we can't stop now or we're never gonna see
 C D 
Everything you want and everything you need
         C 
We'll live while we're young
                D 
And we'll do it 'cuz we're wild and free

(Alright)
#outro :  G C  (4x)
Wild and free
Wild and fre

Fall Is Just Something That Grownups Invented Tabs by The Hives

 Song: Fall Is Just Something That Grownups Invented
Artist: The Hives
: ThePhobiaTheory
Tuning: Standard (EADGBe)

Intro:
e|---8------------------------|---------------------------------------|
B|---8------5b-10~10~10~10~-8-|--5~5~5~5~5~5~------------0~~~~~~~-----|
D|-9b-9-----------------------|--7b7b7b7b7b7b-7-5--------0~~~~~~~-----|
A|----------------------------|-------------------7~~~---0~~~~~~~-----|
G|----------------------------|---------------------------------------|
E|----------------------------|---------------------------------------|
                                             
Verse 1:
e|---------------|----------------|--------------|----------------0~--|
B|---2~~~-3~-2~~-|-2~~~~~~--------| 2~~~~---3~-2-|-2~~~~~~-------2~~--|
G|---2~~~-2~-2~~-|-2~~~~~~-1~-2~~-|-2~~~~--2~~-2-|-2~~~~~~-1----2~~~--|
D|---2~~~-0~-2~~-|-2~~~~~~-2~-2~~-|-2~~~~-0~~~-2-|-2~~~~~~-2---2~~~~--|
A|-0~~~~~----0~~-|-0~~~~~~-2~-0~~-|-0~~~~------0-|-0~~~~~~-2--0~~~~~--|
E|---------------|---------0~-----|--------------|---------0----------|

Chorus:
e|--------------------------------------------------------------------|
B|--------------------------------------------------------------------|
G|-----------------9-9-9-9-9-9-9-9-7-7-7-7-7-7-7-7--------------------|
D|-4-4-4-4-4-4-4-4-9-9-9-9-9-9-9-9-7-7-7-7-7-7-7-7-7-7-7-7-7-7-7-7----|
A|-4-4-4-4-4-4-4-4-7-7-7-7-7-7-7-7-5-5-5-5-5-5-5-5-7-7-7-7-7-7-7-7----|
E|-2-2-2-2-2-2-2-2---------------------------------5-5-5-5-5-5-5-5----|

Post Chorus/Verse 2
e|------------------------------|-------------------------------------|
B|------------------------------|-------------------------------------|
G|------------------777~-7------|------------------999~-9-------------| X2
D|-777~-7-7-7-7-7-7-777~-7-7~-7-|-777~-7-7-7-7-7-7-999~-9-777~-7------|
A|-777~-7-7-7-7-7-7-555~-5-7~-7-|-777~-7-7-7-7-7-7-777-~7-777~-7------|
E|-555~-5-5-5-5-5-5--------5~-5-|-555~-5-5-5-5-5-5--------555~-5------|

Chorus:
e|--------------------------------------------------------------------|
B|--------------------------------------------------------------------|
G|-----------------9-9-9-9-9-9-9-9-7-7-7-7-7-7-7-7--------------------|
D|-4-4-4-4-4-4-4-4-9-9-9-9-9-9-9-9-7-7-7-7-7-7-7-7-7-7-7-7-7-7-7-7----|
A|-4-4-4-4-4-4-4-4-7-7-7-7-7-7-7-7-5-5-5-5-5-5-5-5-7-7-7-7-7-7-7-7----|
E|-2-2-2-2-2-2-2-2---------------------------------5-5-5-5-5-5-5-5----|

Bridge:
e|---------------------------------|----------------------------------|
B|---------------------------------|-10-10-10-10-10-10-10-------------|
G|------------------777~-7---------|-12b12b12b12b12b12b12b-12~--------|
D|-777~-7-7-7-7-7-7-777~-7-7~-7-777|--------------------------14~-----|
A|-777~-7-7-7-7-7-7-555~-5-7~-7-777|-----------------------------12~--|
E|-555~-5-5-5-5-5-5--------5~-5-555|----------------------------------|

e|---------------------------------|
B|---------------------------------|
G|------------------777~-7---------| (Bass Solo)
D|-777~-7-7-7-7-7-7-777~-7-7~-7-777| 
A|-777~-7-7-7-7-7-7-555~-5-7~-7-777| 
E|-555~-5-5-5-5-5-5--------5~-5-555| 

e|---------------------------------|---------8-8b~--------------------|
B|---------------------------------|---------7-7b~--------------------|
G|------------------777~-7---------|-8-8-8-8--------------------------|
D|-777~-7-7-7-7-7-7-777~-7-7~-7-777|-7-7-7-7--------------------------|
A|-777~-7-7-7-7-7-7-555~-5-7~-7-777|----------------------------------|
E|-555~-5-5-5-5-5-5--------5~-5-555|----------------------------------|

e|---------------------------------|
B|---------------------------------|
G|------------------777~-7---------| (Drum Solo)
D|-777~-7-7-7-7-7-7-777~-7-7~-7-777|
A|-777~-7-7-7-7-7-7-555~-5-7~-7-777| 
E|-555~-5-5-5-5-5-5--------5~-5-555| 

Chorus:
e|--------------------------------------------------------------------|
B|--------------------------------------------------------------------|
G|-----------------9-9-9-

Tanks chords – Lets Wrestle

 Lets Wrestle - Tanks
'In The Court Of Wrestling Lets'

: OllietheRocker

Tuning: Standard!

Intro (palm mute power chords then switch to open barre chords on the second time through,
 also on the second time through play the first chord pattern twice rather than changing to Em)

    C Bm F  
e|---------------------------------------------------------------------------|
B|---------------------------------------------------------------------------|
G|-5--5--5--5--5--5--5--5--5--5--5--5--5--5--4--4----------------------------|
D|-5--5--5--5--5--5--5--5--5--5--5--5--5--5--4--4--3--3--3--3--3--3--3--3--3-|
A|-3--3--3--3--3--3--3--3--3--3--3--3--3--3--2--2--3--3--3--3--3--3--3--3--3-|
E|-X--X--X--X--X--X--X--X--X--X--X--X--X--X--X--X--1--1--1--1--1--1--1--1--1-|

             Dm C Em F 
e|---------------------------------------------------------------------------|
B|---------------------------------------------------------------------------|
G|----------7--7--5--5--5--5--5--5--5--5--5--5--5--5--5--5--9--9-------------|
D|-3--3--3--7--7--5--5--5--5--5--5--5--5--5--5--5--5--5--5--9--9--3--3--3--3-|
A|-3--3--3--5--5--3--3--3--3--3--3--3--3--3--3--3--3--3--3--7--7--3--3--3--3-|
E|-1--1--1--X--X--X--X--X--X--X--X--X--X--X--X--X--X--X--X--X--X--1--1--1--1-|

e|---------------------------------------------------------------------------|
B|---------------------------------------------------------------------------|
G|---------------------------------------------------------------------------|
D|-3--3--3--3--3--3--3--3--3--3----------------------------------------------|
A|-3--3--3--3--3--3--3--3--3--3----------------------------------------------|
E|-1--1--1--1--1--1--1--1--1--1----------------------------------------------|


or think of it as, 2 downward strums per beat, 7 beats on C, 1 beat on Bm, 7 on F 
and then 1 beat on Dm etc.

Verse 1
 C Am Dm  
My belief is that we fight and we bleed,
           Am Dm               
And never find what we need to carry on
 C Am Dm 
And my belief is that we lie in the dirt,
               Am Dm C 
And can't get rid of all this hurt and carry on

Chorus
 Em G 
Not a squadron of tanks,
 G C 
Or soldiers of different ranks could save us!
 Em G 
Not a fleet of policemen or,
 G C 
faith or religion could give me the guts to talk to you again

Verse 2
 C Am Dm 
why don't you stop wasting your time,
                   Am Dm 
because I've been wasting my time for far too long.
 C Am Dm 
and when you realize what you have done,
            Am Dm C       
I hope you come and find me and say that you were wrong

Chorus
 Em G 
Not a squadron of tanks,
 G C 
Or soldiers of different ranks could save us!
 Em G 
Not a fleet of policemen or,
 G C 
faith or religion could give me the guts to talk to you again

Bridge
 C Bm F Dm               
oh, oh oh, oh ohhhhh, oooh
 C G F Dm 
oooh hoh-ohoh      ooooh
 C Bm F Dm 
oh, oh oh, oh ohhhhh, oooh
 C G F Dm  
hoh-hoho, oh, oh oooh

 C C 

Chorus
 Em G 
Not a squadron of tanks,
 G C 
Or soldier

Paradise Circus Tabs by Massive Attack

 -------------------------------------------------------------------------------
                             PARADISE CIRCUS - Massive Attack
-------------------------------------------------------------------------------
: Juunobo

Tuning: Standard

Start at 1:12

G|--------------------------------|
D|--------------------------------|
A|8888----------------------------| X3
E|--------------------------------|
 
G|--------------------------------|
D|--------------------------------|
A|--------------------------------|
E|11111---------------------------|

G|--------------------------------|
D|--------------------------------|
A|8888----------------------------|
E|--------------------------------|


G|--------------------------------|
D|--------------------------------|
A|--------------------------------|
E|11111---------------------------|
   

G|--------------------------------|
D|--------66666-------------------|
A|88888-----------66666-----------|
E|------------------------88888888|


G|--------------------------------|
D|--------------------------------|
A|88888-----------------------7--7|
E|--------44444---44444---8888--8-|


G|--------------------------------|
D|--------66666-------------------|
A|88888-----------66666-----------|
E|------------------------88888888|


G|--------------------------------|
D|--------------------------------|
A|88888-----------------------7--7|
E|--------44444---44444---8888--8-|


G|--------------------------------|
D|--------------------------------|
A|88888---------------------------|
E|--------------------------------|


G|--------------------------------|
D|--------------------------------|
A|8888----------------------------| X2
E|--------------------------------|


G|--------------------------------|
D|--------------------------------|
A|88888888--------66666666--------| X4
E|--------44444444--------88888888|



G|--------------------------------|
D|--------------------------------|
A|8888----------------------------|
E|--------------------------------|


G|--------------------------------|
D|--------------------------------|
A|88888---------------------------|
E|--------44444-----------88888888|


G|--------------------------------|
D|--------------------------------|
A|88888-----------------------7--7|
E|--------44444---44444---8888--8-|


G|--------------------------------|
D|--------------------------------|
A|88888-----------66666-----------|
E|--------44444-----------88888888|


G|--------------------------------|
D|--------------------------------|
A|88888-----------------------7--7|
E|--------44444---44444---8888--8-|


G|--------------------------------|
D|--------------------------------|
A|88888-----------66666-----------|
E|--------44444-----------88888888|


G|--------------------------------|
D|--------------------------------|
A|88888-----------66666-----------|
E|--------44444-----------88888888|


G|--------------------------------|
D|--------------------------------|
A|88888888------------------------|
E|--------444444444444444488888888|


G|--------------------------------|
D|--------------------------------|
A|88888888------------------------|
E|--------444444444444444488888--8|


G|--------------------------------|
D|--------------------------------|
A|--------------------------------|
E|1-111--114444--44--4444-88888--8|


G|--------------------------------|
D|--------------------------------|
A|--------------------------------|
E|1-111--114444--44--44-----------|

===============================================================================