Tag: united

Amim Van – Arms Open Wide chords – Hillsong United

 [Intro]
 C 

[Vers 1]
 C 
 Amim van, hozom eléd
 Am 
 Leteszem a keresztnél
 G F C 
 Legyen minden csak Tiéd Uram

[Vers 2]
 C 
 Minden lépés, minden szó
 Am 
 Legyen tiszta, mint a hó
 G F C 
 Ahol járok, Te legyél az Út

[Kórus]
     F C G Am 
Ó - ó, szomjas szívem Terád vár
     F Am G 
Ó - ó, arra vágyom, ölelj át

[Vers 3]
 C 
 Minden óra, minden nap
 Am 
 Minden sóhaj, gondolat
 G F C 
 Rólad szóljon, Rólad Uram

[Kórus]

[Átvezetés]
       C G Am 
Egész életem átadom, hadd legyen Tiéd
        F G F G 
Velem bármit terveztél legyen meg! Örökké

Nincs Más Csak Jézus – One Way chords – Hillsong United

 [Intro 2x]
 C G Am F 

[Vers 1]
 C 
 Leteszem az életem
 Am 
 Csak Te vagy az egyetlen
 G F 
 Minden percben szükségem van Rád
 C 
 Futok hozzád minden nap
 Am 
 Tudom jól Te el nem hagysz
 G F 
 Te vagy minden amiről álmodtam

[Kórus]
 C G 
 Nincs más, csak Jézus
 Am F 
 Ő az akiért a szívem dobban

[Vers 2]
 C 
 Te vagy minden mindenben
 Am 
 Te vagy Úr a szívemben
 G F 
 Bármit nézek szemem téged lát
 C 
 Soha meg nem változol
 Am 
 Te uralkodsz mindenhol
 G F 
 Te vagy egyedül a hatalmas Király

[Átvezetés]
 C G 
Te vagy az út, Te vagy a cél
 Am F C 
Hitben járok, futok a győzelemért
     G Am F 
A szívem Érted ég

Vivo Estás chords – Hillsong United V3

 Vivo Estás (Alive) - Hillsong Young and Free

INTRO (2 veces):  C#m  -  E/G#  -  A A    -  C#m   -  B 
I ESTROFA
 C#m E/G# A 
Roto estaba mi corazón
    A C#m B 
Pero tu mano me rescató
 C#m E/G# A 
Del polvo yo volví a nacer
        A C#m B 
La salvación en ti encontré

 C#m E/G# A 
Tu amor no puedo expresar
  A C#m B 
Te seguiré por la eternidad
 C#m E/G# A 
En tu gracia caminaré
  A C#m B 
En libertad siempre viviré

Pre-Coro
 C#m E/G# A 
En ti, en ti, en ti, soy libre
 A C#m B 
Sé exaltado, sé exaltado
 C#m E/G# A 
Tu amor, tu amor, tu amor no se acaba
 A C#m B 
Oh  oh   oh

CORO
           C#m E/G# A 
Tú vivo estás   en    mí
                 A C#m B 
No hay nadie en tu lu - gar
        C#m E/G# A 
Te necesi - to   Dios
          A C#m B 
Eres mi li - ber - tad

INTRO (1 veces):  C#m  -  E/G#  -  A A    -  C#m   -  B 
II ESTROFA
 C#m E/G# A 
Al pasar por la oscuridad
      A C#m B 
Su luz siempre me guiará
 C#m E/G# A 
Mis cadenas Jesús rompió
    A C#m B 
Con su mano me rescató

 C#m E/G# A 
Este mundo terminará
      A C#m B 
Te seguiré hasta el final
 C#m E/G# A 
Haz en mí Dios tu voluntad
       A C#m B 
Venga tu reino a este lugar

Relentless chords – Hillsong United V5

 "For I am convinced that neither death nor life, 
neither angels nor demons, 
neither the present nor the future, 
nor any powers, neither height nor depth, 
nor anything else in all creation, 
will be able to separate us 
from the love of God that is
in Christ Jesus our Lord." 
--Romans 8:38-39

This version is on Capo 4 but 
if you prefer playing without
capo then just transpose these chords 4 times lower.

Relentless
Matt Crocker, Joel Houston

Capo 4
Verse 1:
 G C Em  
 Salvation sounds a new beginning
 C G C Em  
   As distant hearts begin believing
 C G C Em 
   Redemption's bid is unrelenting
       C G C Em 
Your love goes on, Your love goes on

Pre-Chorus:
      C Em G D 
You carry us, carry us, when the world gives way
  C Em G D 
Cover us, cover us, with Your endless grace

Chorus:
 G C Em C          
 Your love is relentless, Your love is relentless
 G C Em C G  
 Your love is relentless, Your love is relentless

Verse 2:
 G C Em  
The time is up for chasing shadows
 C G C Em  
You gave the world a light to follow
 G C Em  
A hope that shines beyond tomorrow
 C G C Em  
Your love goes on, Your love goes on

Bridge:
 D Em C G 
 Tearing through the veil of darkness, breaking every chain, You set us free
 D Em C G 
 Fighting for the furthest heart You gave, You're alive for all to see

Poderoso Para Salvar chords – Hillsong United

 Hillsong United
Poderoso para salvar
AUTOR: Ben Fielding
 Con Todo (2010)

////////////////////////////////////

Verso 1:
 D A 
Todos necesitan
                 F#m 
Amor que nunca falla
    E D 
Tu gracia y compasión
           A 
Todos necesitan
              F#m 
Perdón y esperanza
       E D 
De un Dios que salva
 D - E - D - E 

Coro:
 A E 
Cristo, Puede mover montes
           D A 
Solo Dios puede salvar
          Bm E 
Mi Dios puede salvar
 A E 
Por siempre, Autor de salvación
           D A 
Jesús la muerte venció
         Bm E 
Él la muerte venció

-

Verso 2:
 D A 
Aun con mis temores
              F#m 
Sé que me aceptas
   E D 
Lléname otra vez
                     A 
Mi vida entera ofrezco
                  F#m 
Para seguir tus pasos
   E D 
A ti me rindo
 D - A - Bm - E 

Coro(x2)

Puente:
 D A E 
  En la tierra, Tu luz brillara
         D 
Cantamos
              A E 
Por la gloria, De tu majestad
Jesús

Coro(x2)
Puente(x2)


////////////////////////////////////

Muchas bendiciones ~^o^
Atte.: Whiteangel89

Mighty To Save chords – Hillsong United V9

 Capo 2


Intro:
 C2 ,  G ,  Em ,  D 


Verse 1:
 C2 G 
Everyone needs compassion
                    Em 
A love that’s never failing
     D 
Let mercy fall on me
 C2 G 
Everyone needs forgiveness
                   Em 
The kindness of a Savior
     D 
The hope of nations



Bridge to chorus:
 C2 ,  D ,  C2 ,  D 



Chorus:
 G D 
Savior, He can move the mountains
           Em C2 
My God is mighty to save
       Em D 
He is mighty to save
 G D 
Forever, Author of salvation
             Em C2 
He rose and conquered the grave
       Em D 
Jesus conquered the grave



Bridge to verse 2:
 C2 ,  G ,  Em ,  D 



Verse 2:
 C2 G 
So take me as You find me
                  Em 
All my fears and failures
 D 
Fill my life again
 C2 G 
I give my life to follow
              Em 
Everything I believe in
     D 
Now I surrender



Bridge to Chorus
 C2 ,  D ,  C2 ,  D 



Chorus:
 G D 
Savior, He can move the mountains
           Em C2 
My God is mighty to save
       Em D 
He is mighty to save
 G D 
Forever, Author of salvation
             Em C2 
He rose and conquered the grave
       Em D 
Jesus conquered the grave           x2



Bridge:
 C2 G D Em 
Shine your light and, let the whole world see, we’re singin'
 C2 G D Em 
For the glory, of the risen King, Jesus      x2



Chorus:
 G D 
Savior, He can move the mountains
           Em C2 
My God is mighty to save
       Em D 
He is mighty to save
 G D 
Forever, Author of salvation
             Em C2 
He rose and conquered the grave
       Em D 
Jesus conquered the grave  

 

Bridge:
 C2 G D Em 
Shine your light and, let the whole world see, we’re singin'
 C2 G D Em 
For the glory, of the risen King, Jesus      x6


Ending:
 C2 ,  G ,  Em ,  D 

END

The Lost Are Found Tabs by Hillsong United V2

 Artist: Hillsong Live
 God Is Able
Song: The Lost Are Found

Key: B | Capo 4

Intro/Electric Guitar riff:

E-------11---14---11-------11---14---11--------11------11-------11-|
B---12----------------12------------------12-------14--------11----|
G-----11-----------------11------------------11--------------------|
D------------------------------------------------------------------|
A------------------------------------------------------------------|
E------------------------------------------------------------------|

E--------------------------------------------|
B------12----11-----9-----11s12--------------|
G--------------------------------------------|
D--------------------------------------------|
A--------------------------------------------|
E--------------------------------------------|


Chords:

Intro (x4): Em  C  G  Bm


Verse 1:
    Em
Everlasting
          C            G   Bm
While earthly ages fade
   Em
In mercy
     C                     G    Bm
Our God Your kingdom reigns


Pre-chorus:
Am                  Em
Lord over everything
            G  Bm
You are near
Am                 Em
All of the universe
            C
At Your feet


Instrumental (x2): Em  C  G  Bm 

Verse 2:
         Em  
In the Saviour
    C                 G    Bm
Injustice brought to right
           Em
For Your glory
          C                  G  Bm
That Your Name be lifted high


Pre-chorus (x2):
Am                  Em
Lord over everything
            G  Bm
You are near
Am                 Em
All of the universe
            C
At Your feet


Instrumental: G  Am  Em  C


Chorus:
    G
The lost are found
               Am
The blind will see
    Em
The lame will walk
              C
The dead will live
    G
And You our God
   Am            Em    C
Forever You will reign

Your Love Is Better chords – Will Reagan And United Pursuit

 -------------------------------------------------------------------------------
                             YOUR LOVE IS BETTER - Will Reagan and United Pursuit
-------------------------------------------------------------------------------
: Leek
 FALN@live.com



Capo 0


Intro

 G A Em D 


Verse

 G A 
I close my eyes
 Em D 
There's a question deep inside
 G A 
Will you guide me through the night
 Em D 
Will you calm the storms of my night
 G A 
Cause all these walls I've built are comfortable
 Em D 
And the world outside is loud
 G A 
When the voice I trust is fear and doubt
 Em D 
I don't need your guidance now


Prechorus


             D A Em G 
All my walls and my defenses fall, fall to the ground
                 D A Em D 
When the warmth of your light, shines all around


Chorus

                       G A 
Your love is better than all the world can give
                       Em D 
Your love is better than all the world can give


Verse 2

 G A 
Will you save me from this emptiness
 Em D 
Will you lead me into peace
 G A 
Will you save from this loneliness
 Em D 
Will your hope my fears released

Forever Reign Tabs by Hillsong United

 INTRO

e|----------------------------|
B|---7/h/9---7/h/9------------|
G|-------------------9-9-10---|   x2
D|----------------------------|
A|----------------------------|
E|----------------------------|



VERSE 1:

        C
You are good, You are good When there's nothing good in me.
        
        G
You are love, You are love On display for all to see.
        
         C
You are light, You are light When the darkness closes in.
        
         G
You are hope, You are hope You have covered all my sin.



e|--------------------------------|
B|---5---7/h/9---7/h/9------------|
G|-----------------------9-9-10---|   
D|--------------------------------|
A|--------------------------------|
E|--------------------------------|


VERSE 2:

e|---15--------21---15---|
B|--------15-------------|
G|-----------------------|   x4
D|-----------------------|
A|-----------------------|
E|-----------------------|



PRE-CHORUS:

e|---1-1-1----------------1-1-1------15-15-15---|
B|---------5-5--13-13-13--------5-5--13-13-13---|
G|----------------------------------------------|
D|----------------------------------------------|
A|----------------------------------------------|
E|----------------------------------------------|



CHORUS:

e|---12-12-12----------15-15---12-12-12-----------17-17---|
B|------------15-15-15-------------------15-15-15---------|
G|--------------------------------------------------------|   x3
D|--------------------------------------------------------|
A|--------------------------------------------------------|
E|--------------------------------------------------------|


e|--12-12-12--------15-15--12-12-12-----------15--15--15--15--15--15--15---|
B|----------15-15-15----------------15(x5)--13--13--13--13--13--13--13--13-|
G|-------------------------------------------------------------------------|
D|-------------------------------------------------------------------------|
A|-------------------------------------------------------------------------|
E|-------------------------------------------------------------------------|



VERSE 3:

You are more, You are more Than my words will ever say.

You are Lord, You are Lord..


"All creation will proclaim.." (Build)
e|--------------------------------------------------------------------|
B|---13-13-13-13-13-13-13-13-13-13-13-13-13-13-13-13-13-13-13-13-13---|
G|---12-12-12-12-12-12-12-12-12-12-12-12-12-12-12-12-12-12-12-12-12---|
D|---10-10-10-10-10-10-10-10-10-10-10-10-10-10-10-10-10-10-10-10-10---|
A|--------------------------------------------------------------------|
E|--------------------------------------------------------------------|


"You are God, You are God.."
e|---10-10-10-10-10-10-10-10-10-10-10-10-10-10-10-10-10-10-10-10-10---|
B|---12-12-12-12-12-12-12-12-12-12-12-12-12-12-12-12-12-12-12-12-12---|
G|---12-12-12-12-12-12-12-12-12-12-12-12-12-12-12-12-12-12-12-12-12---|
D|--------------------------------------------------------------------|
A|--------------------------------------------------------------------|
E|--------------------------------------------------------------------|



PRE-CHORUS:

e|---1-1-1----------------1-1-1------15-15-15---|
B|---------5-5--13-13-13--------5-5--13-13-13---|
G|----------------------------------------------|
D|----------------------------------------------|
A|----------------------------------------------|
E|----------------------------------------------|



CHORUS:

e|---12-12-12----------15-15---12-12-12-----------17-17---|
B|------------15-15-15-------------------15-15-15---------|
G|--------------------------------------------------------|   x3
D|--------------------------------------------------------|
A|--------------------------------------------------------|
E|--------------------------------------------------------|


e|--12-12-12--------15-15--12-12-12-----------15--15--15--15--15--1

Oceans Where Feet May Fail chords – Hillsong United V5

 Song Name: Oceans (Where Feet May Fail)
Arrangement: Hillsong United - Zion

Chorded by: Worship Tutorials
email: brian@worshiptutorials.com

 Bm  / /  A/C#  |  D  / / / |  A  / / / |  G  / / / |

VERSE 1:
 Bm A/C# D 
  You call me out upon the waters
            A G 
The great unknown where feet may fail
 Bm A/C# D          
  And there I find You in the mystery
             A G 
In oceans deep - My faith will stand

CHORUS:
 G D A      
  And I will call upon Your name
 G D A G 
  And keep my eyes above the waves - When oceans rise    
               D A 
My soul will rest in your embrace
            G         ( A )
For I am Yours and You are mine

TURNAROUND:
 Bm  / /  A/C#  |  D  / / / |  A  / / / |  G  / / / | 

VERSE 2:
 Bm A/C# D 
Your grace abounds in deepest waters
                 A G 
Your sovereign hand   Will be my guide
 Bm A/C# D 
Where feet may fail and fear surrounds me
               A G 
You've never failed and you won't start now

CHORUS 2:
 G D A 
So I will call upon Your name
  G D A G 
And keep my eyes above the waves - When oceans rise    
               D A 
My soul will rest in your embrace
            G          ( A )
When I am Yours  and You are mine

TURNAROUND/SOLO:
 Bm  / /  A/C#  |  D  / / / |  A  / / / |  G  / / / |
 Bm  / /  A/C#  |  D  / / / |  A  / / / |  G  / / / |

BRIDGE  A :
 Bm G 
   Spirit lead me where my trust is without borders     
            D A 
   Let me walk upon the waters wherever You would call me
 Bm G 
   Take me deeper than my feet could ever wander
             D A 
   And my faith will be made stronger in the presence of my Savior (x3)

BRIDGE  B :
 G D 
   Spirit lead me where my trust is without borders     
             A Em 
   Let me walk upon the waters wherever You would call me
 G D 
   Take me deeper than my feet could ever wander
             A Em 
   And my faith will be made stronger in the presence of my Savior

BRIDGE  C :
 Bm A/C# D 
   Spirit lead me where my trust is without borders     
            A Em 
   Let me walk upon the waters wherever You would call me
 Bm A/C# D 
   Take me deeper than my feet could ever wander
             A Em 
   And my faith will be made stronger in the presence of my Savior (x2)

SOLO 2:
 Bm  / /  A/C#  |  D  / / / |  A  / / / |  Em  / / / |
 Bm  / /  A/C#  |  D  / / / |  A  / / / |  Em  / / / |

CHORUS 3:
 G D A  
  I will call upon Your Name    
 G D A     
  Keep my eyes above the waves
 G D A  
  My soul will res

Freedom chords – Foursquare United Generation

 Hey Guys, It's Ethan from Christian Church Steps of Faith/Iglesia Cristiana Pasos 
de Fe in Kent, WA.
I have official chords for you that were given to me by Luke Breton Van Groll (I 
take no credit for these chords).
 God Bless !

Key of C

Verse1
 C Am F G 
As I walk, this life, You go before me
 C Am F G             
As I am, right here, I know You love me

Pre-Chorus
 Am F C 
In spirit and truth, I worship You
                       G Am                    
I cannot be shaken, I will not be moved
                 F C 
You set me apart, and called me by name
                      G Am 
Here I stand, in Your power and grace

           Chorus
         Am F 
With passion and fire
                C G         
Lord I will seek Your face
           Am F 
I see redemption
                  C G            
and freedom in this place

Verse 2         
Sovereign hands, faithfully, upholding me
Your Glory exposed, for every eye to see       

Bridge
 Am F C G 
Freedom, Freedom, Freedom, I am free (repeat)

2nd Bridge
 Am F 
You came and gave, You ransomed me
 C G 
The cross You bore, has set me free (3x) 

www.ugworship.com

A Song To Sing intro Tabs by Hillsong United

 Hillsong United
 Live In Miami
Song: A Song To Sing...


Intro:

E:----------7-----------------------------7-------------|
B:--9---9-------11--9-------------9---9------11--9------|
G:---8---8------------11-----------8---8-----------11---|
D:------------------------------------------------------|
A:------------------------------------------------------|
E:------------------------------------------------------|

E:----------7-----------------------------7-------------|
B:--7---7-------11--9-------------7---7------11--9------|
G:---8---8------------11-----------8---8-----------11---|
D:------------------------------------------------------|
A:------------------------------------------------------|
E:------------------------------------------------------|

Use some combo of delay/chorus and very soft distortion!



That´s one of my favourite intro parts Hillsong did, been searching for it a while and 
couldn´t find it, so i tried to write it myself!
Hope you enjoy it :)


That´s my first tab, sorry if it´s not fitting exactly ;)
Be blessed!!!

Andrew Bishop

Nothing I Hold On Toclimb chords – Will Reagan And United Pursuit

 Verse 1:
 G Em 
I lean not on my own understanding
    C G 
My life is in the hands of the Maker of Heaven

Chorus:
           G 
        I give it all to You, God
         Em C G 
        Trusting that You'll make something beautiful out of me

Bridge 1:
        G 
I will climb this mountain
         Em 
With my hands wide open
        C 
I will climb this mountain
         G 
With my hands wide open

Bridge 2:
                         G 
There is nothing I hold on to
                         Em 
There is nothing I hold on to
                         C 
There is nothing I hold on to
                         G 
There is nothing I hold on to

Higher Tabs by Hillsong United

 -------------------------------------------------------------------------------
                             Higher - Hillsong United
-------------------------------------------------------------------------------
This is just a tab I made for the intro to the acoustic version of Higher. The original 
song is played with two guitars, but I tried to put everything in one. Hope you like it!

: William Jun

Tuning: Standard

Verse 1

e|-3----------------3-----------------------------3--------------------------|
B|-1----------------0-----------------0h1---------1--------------------------|
G|---------0----------------0---------2-------2---------------2--------------|
D|-3---3-------3----0---0-------0---------2---------------2-------2----------|
A|------------------------------------0--------------------------------------|
E|---------------------------------------------------------------------------|

e|-3----------------3--------------------------------------------------------|
B|-1----------------0-----------------1-------0h1-1--------------------------|
G|---------0----------------0-----------------2---------------2--------------|
D|-3---3-------3----0---0-------0---------2-----------2---2-------2----------|
A|------------------------------------0--------------------------------------|
E|---------------------------------------------------------------------------|

           For    unto           us
e|-3----------------3-----------------0-----------0--------------------------|
B|-1----------------0-----------------1-----------1-----------1--------------|
G|---------0--------0-------0-----------------2------------------------------|
D|-3---3-------3--------0-------0---------2---------------2-------2----------|
A|------------------------------------0--------------------------------------|
E|---------------------------------------------------------------------------|

           A      savior         came
e|-3----------------3-----------------0--------------------------------------|
B|-1----------------0-----------------1---------------1----------------------|
G|---------0--------0-------0-----------------2---------------2--------------|
D|-3---3-------3--------0-------0---------2-------2---------------2----------|
A|------------------------------------0--------------------------------------|
E|---------------------------------------------------------------------------|

           Amazing             grace        that  takes   the     weight
e|-3----------------3-----------------0-----------0--------------------------|
B|-1----------------0-----------------1-----------1--------------------------|
G|---------0--------0-------0-----------------2---------------2--------------|
D|-3---3-------3--------0-------0---------2---------------2------------------|
A|------------------------------------0--------------------------------------|
E|---------------------------------------------------------------------------|

e|-3----------------3-----------------0-----------------------3--------------|
B|-1----------------0-----------------1-----------1-----------1--------------|
G|---------0----------------0-----------------2---2-------2------------------|
D|-3---3-------3----0---0-------0---------2-----------2-----------2----------|
A|------------------------------------0--------------------------------------|
E|---------------------------------------------------------------------------|

           His  name     is      hope
e|-3----------------3-----------------0-----------0-----------0--------------|
B|-1----------------0-----------------1-----------1-----------1--------------|
G|---------0--------0-------0-----------------2------------------------------|
D|-3---3-------3--------0-------0---------2---------------2-------2----------|
A|------------------------------------0--------------------------------------|
E|-----------------------------------------------------

Oceans Where Feet May Fail Tabs by Hillsong United V2

 -----------------------------------------------------------------------------
    Oceans (Where Feet May Fail)- Hillsong United
-------------------------------------------------------------------------------
: Audrey Barnett
 audreyqbarnett

Tuning: Standard
In the key of D

Chorus

(Do this part 3 out of the 4 times)

         G              D            A

e|--------7----7/------14------14---9---9---9----9h10p9------------|
B|-----------------------------------------------------------------|
G|----7----7------14------14-----9---9---9-------------------------|
D|-----------------------------------------------------------------|
A|-----------------------------------------------------------------|
E|-----------------------------------------------------------------|

Do this the 4th time (The Bm triad isn't necessary, I just like it)

           G           A      Bm

e|-----7-----7----7-----9-----7----------------------|
B|------------------------------7--------------------|
G|-7-----7------7----9------7------------------------|
D|---------------------------------------------------|
A|---------------------------------------------------|
E|---------------------------------------------------|

2nd Chorus

(Alternative for chords)

        Bm          A      D                            e|--|
B|----------------------------------------------------------|
G|---7---7---7---9----11---11---11---11---------------------|
D|-9---9---9---11---12---12---12---12-----------------------|
A|----------------------------------------------------------|
E|----------------------------------------------------------|

           A                                 G
e|----------------------------------------------------------------|
B|----------------------------------------------------------------|
G|----------------------------------------------------------------|
D|----11----11----11----11----12----12----12----12----------------|
A|-------12----12----12----12----10----10----10----10-------------|
E|----------------------------------------------------------------|

This might not be exactly what is on the record, but it all sounds good with it and can 
provide some alternatives to the exact thing. :)
************************************

| /   slide up
| \   slide down
| h   hammer-on
| p   pull-off
| ~   vibrato
| +   harmonic
| x   Mute note
| b   Bend
| pb  Pre-bend
| br  Bend release
| pbr Pre-bend release
| brb Bend release bend

************************************

Up In Arms chords – Hillsong United V2

 Verse 1:
    F C G 
A reckless love too wild to understand
    F C G 
Breathing the world to life in Your romance

Pre-chorus:
           A7 C 
So here I am
       G F A7 C 
Your love has got me up in arms again
           G F 
And this hope won't let me go

Chorus 1:
     C G 
My joy is boundless, my soul knows its worth
    A7 F 
In arms stretching wider, than my heart could ever fall

Verse 2:
 F C G 
You own the skies and still You want my heart
  F C G 
Casting Your throne aside to lift me up

Chorus 2:
  C G 
Your word is final, Your name above all
      A7 F 
The cross my reminder, Your love is forever

Finale:
              C G A7 
Cause here I am, Your love has got me up in arms again
           F 
And this hope won't let me go
        C G A7 
Here I am, Jesus take my life and all I have
           F 
Now this hope won't let me go

Mercy Mercy Acoustic Tabs by Hillsong United

 Artist: Hillsong United
 Zion Acoustic Sessions
Song: Mercy Mercy (Acoustic Version)

: Frenchboy/magicberu

Tuning: Standard (eBGDAE)


Capo 2 | Key: A




Intro and interludes:


e|---------------------------------------------------------------------------|
B|-----8---8---------------8---8------------------3---3----------------------|
G|---0-------0---0-------0-------0---0----------0-------0---0----------------|
D|---------------------------------------------------------------------------|
A|-7-----7-----7-------7-----7-----7---------\2-----2-----2------------------|
E|---------------------------------------------------------------------------|

e|---------------------------------------------------------------------------|
B|-----5---5-----------------3---3------------------3---3--------------------|
G|---0-------0---0---------0-------0---0----------0-------0---0--------------|
D|---------------------------------------------------------------------------|
A|/3-----3-----3-------------------------------------------------------------|
E|-----------------------3-----3-----3----------3-----3-----3----------------|

e|---------------------------------------------------------------------------|
B|------------------3---3----------------------3---3-------------------------|
G|----------------0-------0---0--------------0-------0---0-------------------|
D|---------------------------------------------------------------------------|
A|---------------------------------------------------------------------------|
E|--------------3-----3-----3--------------3-----3-----3---------------------|



Verses:

e|---------------------------------------------------------------------------|
B|-----8---8---------------8---8------------------3---3----------------------|
G|---0-------0---0-------0-------0---0----------0-------0---0----------------|
D|---------------------------------------------------------------------------|
A|-7-----7-----7-------7-----7-----7---------\2-----2-----2------------------|
E|---------------------------------------------------------------------------|

e|---------------------------------------------------------------------------|
B|-----5---5-----------------3---3------------------3---3--------------------|
G|---0-------0---0---------0-------0---0----------0-------0---0--------------|
D|---------------------------------------------------------------------------|
A|/3-----3-----3-------------------------------------------------------------|
E|-----------------------3-----3-----3----------3-----3-----3----------------|

e|---------------------------------------------------------------------------|
B|------------------3---3----------------------3---3-------------------------|
G|----------------0-------0---0--------------0-------0---0-------------------|
D|---------------------------------------------------------------------------|
A|---------------------------------------------------------------------------|
E|--------------3-----3-----3--------------3-----3-----3---------------------|

e|---------------------------------------------------------------------------|
B|-----8---8---------------8---8------------------3---3----------------------|
G|---0-------0---0-------0-------0---0----------0-------0---0----------------|
D|---------------------------------------------------------------------------|
A|-7-----7-----7-------7-----7-----7---------\2-----2-----2------------------|
E|---------------------------------------------------------------------------|

e|---------------------------------------------------------------------------|
B|-----5---5-----------------3---3------------------3---3--------------------|
G|---0-------0---0---------0-------0---0----------0-------0---0--------------|
D|---------------------------------------------------------------------------|
A|/3-----3-----3------------------------------------------------------