Tag: until

Love Me Until The End Of Time chords – Secret Lie

 Secret Lie - Love Me Until the End of Time
From the  Behind the Truth (2014)
Comment for any corrections and please rate


   Am Asus2 G F F7 G 
 Love     me until the end of time
   Am Am7 G F F7 G G7 
 Love     me until the end of time

 Dm F 
 As you grab my hand
         C G 
 Time slows down and stops
 Dm F 
 As I hold you tight
          C G 
 I wish we could be like this forever

       Dm F 
 'Cos all the time we have we'll share it
          C G 
 You and I chasing life
      Dm F 
 And all the time we spend living life
          C G 
 You and I, I'm just asking you to

   Am Asus2 G F F7 G 
 Love     me until the end of time
   Am Am7 G F F7 G    
 Love     me until the end of time

 Am G F G Am G F G Dm F 
 As you loose my hand
      C G 
 My world starts crumbling down
 Dm F 
 As I hold you tight
          C G 
 I know we will be like this forever

       Dm F 
 'Cos all the time we have we'll share it
          C G 
 You and I chasing life
       Dm F 
 'Cos all the time we spend in this life
          C G 
 You and I, All I need comes from you

   Am Asus2 G F F7 G 
 Love     me until the end of time
   Am Am7 G F F7 G    
 Love     me until the end of time
   Am Asus2 G F F7 G 
 Love     me until the end of time
   Am Am7 G F F7 G C  
 Love     me until the end of time

I Cant See Until I See Your Eyes chords – John Frusciante

 one of my favorites from smile from the streets you hold
the lyrics are only approximations
 F A# 
come as you are 
 F A# 
have some wine 
 F A# G# A# G# 
and some coffee
 F A# 
come as you are
 F A# 
have a gun
          C# D# 
answer me my baby


 F A# 
come dance with me
     F A# F 
I been watching you
       A# C# D# C# 
and I need you
 F A# 
come have some wine
 F A# 
makes me want
 F A# C# D# C# 
wanna kill myself at all

this part switches up a little
 F A# F A# F G#  slide to  A# F A# 
come have some wine
 F A# 
as a cure
     D# C# 
there's a reason
 F A# F A# 
come you're the one
         F         
who only lies
    A# D# C# F A# 
I cant see til I see your eyes
 F A# 
see your eyes
 A# G# A# G# 
aah baby, come on baby
 A# G# D# 
I need you or I need nothing

 F D# *   F D# *
        F 
I need you

   chords
   F A# G# C# D# D# *
E x  6   4   9   11   x
a 7  8   6   11  13   6
d 9  8   6   11  13   8
g 9  7   5   10  12   8
b 9  6   4   9   11   8
e 7  6   4   9   11   6

Until I Wake Up Tabs by Dishwalla V4

 Song: Until I Wake Up
Artist: Dishwalla
 And You Think You Know What Life's About (1998)

This is an acoustic version of the song. It's not tabbed to be exactly as the original 
song is played. This is a simplified version.

In the original song, you play the intro riff throughout the first verse, but if you're 
playing acoustic, it just sounds better to play the actual chords (to make up for the 
lack of drums and bass), so that's why I put them there.

I only added chords for the first verse and first chorus, because the rest of the song 
is exactly the same. Enjoy!



Capo 2

Intro Riff (x2):

   G              Bm              F#m            G
E|----------------------2-----------------------------------------|
B|--3---3---3---3---3-------3---3--3---2---3---3--3---3---3---3---|
G|----------------------------------------------------------------|
D|--------------------2-------2-----------------------------------|
A|----2-------2---2-------2-----------3-------3------2-------2----|
E|-3-----3-----------------------2-------2-------3-------3--------|



G  Bm      F#m  G
 I rest my head
G  Bm        F#m     G
 Between the bed and sky
G    Bm      F#m   G
 Download my dread
G   Bm     F#m           G
 Disarm my mind, make it dry


G           Bm              F#m       G
 Nothing in motion, and I'm satisfied
A       Bm                F#m     G
 No disappointment 'til I wake up
               G
 Don't want to wake up



 Into clear space

 Vivid vision, see her shape

 At my bedside

 Beam up my mind, please



 Nothing in motion, I'm not satisfied

 No disappointment 'til I wake up

 Nothing in motion, and I'm not satisfied

 No disappointment 'til I wake up

 I don't want to wake up



 Nothing in motion, I'm not satisfied

 No disappointment 'til I wake up

 Nothing in motion, and I'm satisfied

 No disappointment 'til I wake up

 Don't want to wake up, don't want to wake up, no

 Don't want to wake up, don't want to wake up, no

Until The Sunrise chords – Timeflies V2

 Until the Sunrise
Timeflies

Drop D Tuning (DADGAE)
Capo 2

These are the chords that I play (relative to the capo):

        A D F#m E G#m      
e |----0-------0-------0-------0-------0----|
A |----0-------0-------0-------0-------0----|
G |----2-------2-------2-------1-------4----|
D |----2-------0-------4-------2-------6----|
A |----0-------0-------0-------0-------X----|
D |----0-------0-------4-------2-------6----|


Verse 1
 A D F#m D 
It's getting late but I'm not tired
 A D F#m D  
There's no place I'd rather be
 A F#m D 
The night is young I feel inspired
 F#m D E 
I guess we'll have to wait and see


Pre-Chorus
 F#m D 
This night is perfect so don't let it end
 A G#m 
Let's make it worth it cause I got a feelin that
 D                          
When this is over we'll do it again
 G#m                            
So if you feel it stand up, you could put your hands up


Hook (Chorus)
 D F#m E 
Lets stay up until the sunrise
 D F#m E 
We can dance the night away
 D F#m E     
It could be like this forever
 D F#m E  
Until tomorrow is today

              D 
And we could say
         F#m E 
Oh oh oh oh oh oh oh


Bridge pt 1
 F#m E D 
There's no need for time, cause with you it's standing still
                 E 
Only to make me feel like I do now
 F#m D 
Cause we could have it all, till nothing is left to give
                       E 
Like this is our last chance
    A 
Cause that's the only way I live


Breakdown
   F#m 
Is like tomorrow's the end and today's the day so you can save the date
    E 
And you can live it how you wanna live it
              
but you're gonna be givin a whole lot of time just chasin fate
  D 
Everything's gon' be aright, so there's no need to fear
  E 
I'ma take you from the dark to the light 
                               G#m 
so tonight we gonna live like we’re the last ones here
 F#m 
Climbed myself from the bottom of the stars 

to the moon to the clouds now its back to earth
 E 
And I'm sayin what I found on the way down when I touched ground 

is pain don't have to hurt
  D 
So baby let it go, cause girl we're free to run
  E 
So we should live tonight and dance until we see the sun


Bridge pt 2
 F#m D 
This night is perfect
 A D 
Let’s make it worth it


Pre-Chorus
 F#m D 
This night is perfect so don't let it end
 A G#m 
Let's make it worth it cause I got a feelin that
 D                          
When this is over we'll do it again
 G#m                            
So if you feel it stand up, you could put your hands up


Hook (Chorus)
 D F#m E 
Lets stay up until the sunrise
 D F#m E 
We can dance the night away
 D F#m E     
It could be like this forever
 D F#m E  
Until tomorrow is today

              D 
And we could say
         F#m E 
Oh oh oh oh oh oh oh

Until The End chords – The Coffinshakers

 Intro:  G Em C D G D G Em    
There is nothing left to do
               C D 
It seems like everything is done
 G Em 
Nothing more to achieve
      C D G D 
I no longer know in what to beleive

The path of my life
Once a road of many choices
Now a blind alley in the dark
And to guide my way I don't even have a spark

 Em C D 
The death of what is dead, not a prayer will be said
         G C D 
Well, I guess it wouldn't help me anyway
             Em C D 
When on the path of death I tread not a tear will be shed
         Em C G D      
There's no-one who will miss me that day

The call of the wild
Has for many years ago
Forever lost it's charm
Now I just long for the Reaper's icy arms

I don't know when my time will come
But there is no-one to tell goodbye
Not a lover nor a friend
So I guess I'll move it on until the end

The death of what is dead, not a prayer will be said
Well, I guess it wouldn't help me anyway
The only one decease that is making my blood freeze
Is the boredom that has lead me astray

              C D G 
And it's too late for me to stay
 C D G 
Nothing can help me that day
           Em C D 
When even death is fading away

Until Shes Gone chords – Micah And The Reason

 UNTIL SHES GONE
www.micahandthereason.com

 G#m 
At the moment when the sun starts to risen
 C#m7 
You can see the light leaving her eyes and
G#maj7sus
Another night of sweet talking lies and 
     E9 D#9 
She told herself this won’t be the same 

Not ready to admit she wont look in the mirror
Cause thats the moment when it all becomes clearer
They touched souls now he wont come near her
But she’s grown numb to the pain

 C#m7 
She thought shed finally found
G#maj7sus
What she wants to come around
 G#m 
 And even though he wasnt here now
 E9                                   G#maj7sus
She’ll just let it go so it won’t bring her down

 G#m C#m7 
Cause shed settle for a warm hand than to go home alone
G#maj7sus                                         G#m 
Shed settle for any man until she can find her own
 G#m C#m7 
And you cant tell her nothing cause shes known it all along
     E9 D#9 
And shes gone be that way until shes gone 

 G#m D#m7   (Repeat 4x’s) 

She hears the ridicule but tries to pay it no mine
But you dont have to look deep to see it in her eyes
She just considers it a little bit of a sacrifice 
So she can get what she wants in this life

She just says shes trying to find what shes looking for 
But forgot that the universe is keeping score
And only pays whats collected from you nothing more
And then wonders why it wont all turn out right

She thought shed finally found
What she wants to come around
And even though he wasnt here now
She’ll just let it go so it wont bring her down

Cause shed settle for a warm hand than to go home alone
She’d settle for any man until she found her own
And you cant tell her nothing cause shes known it all along
And shes gone be that way until shes gone 

 Emaj7 
Oh I hope she finds 
 D#m7 
That peace in time 
 C#m7 G#m 
And I hope its really true 
Because if she were to sustain
All that would remain 
 C#m7                             G#maj7sus
Is the shell of what shes been through

Repeat Chorus

End

Until We Have Faces Tabs by Red

 
-------------------------------------------------------------------------------
                             Until We Have Faces - Red
-------------------------------------------------------------------------------
: StevenBeaven90
 stevenkotelnikov
Tuning: Drop A ( A E A D F# B )
Go to http://www.youtube.com/watch?v=nEnZgtASzeA to view this tab in action.

B|-----------------------------------------------------------------------------|
F#|----------------------------------------------------------------------------|
D|-10-------7--------12--------9-----------------------------------------------|
A|--8--------5--------10--------7-----------(x2)-------------------------------|
E|--8--------5--------10--------7----------------------------------------------|
A|--8--------5--------10--------7----------------------------------------------|

B|------------------------------------------------------------------------------|
F#|-----------------------------------------------------------------------------|
D|------------------------------------------------------------------------------|
A|--0-------0---0-----------------------0-------0---0---------------------------|
E|--0-------0---0-----------------------0-------0---0---------------------------|
A|--0-------0---0-----------------------0-------0---0---------------------------|

B|------------------------------------------------------------------------------|
F#|-----------------------------------------------------------------------------|
D|------------------------------------------------------------------------------|
A|--0---------------------------------------------------------------------------|
E|--0---------------------------------------------------------------------------|
A|--0---------------------------------------------------------------------------|

B|------------------------------------------------------------------------------|
F#|-----------------------------------------------------------------------------|
D|------------------------------------------------------------------------------|
A|--0--3--0--6--0--3--6--0--6--0--3--6--7--0--3--6------------------------------|
E|--0--3--0--6--0--3--6--0--6--0--3--6--7--0--3--6------------------------------|
A|--0--3--0--6--0--3--6--0--6--0--3--6--7--0--3--6------------------------------|

B|------------------------------------------------------------------------------|
F#|-----------------------------------------------------------------------------|
D|------------------------------------------------------------------------------|
A|--0--7--6--0--3--6--0--6--0--3--6--0--1--1------------------------------------|
E|--0--7--6--0--3--6--0--6--0--3--6--0--1--1----------(x2)----------------------|
A|--0--7--6--0--3--6--0--6--0--3--6--0--1--1------------------------------------|

B|------------------------------------------------------------------------------|
F#|-----------------------------------------------------------------------------|
D|------------------------------------------------------------------------------|
A|--3-------------6-------------4-------------7---------------------------------|
E|--3---(x16)-----6---(x16)-----5---(x16)-----7---(x16)-------------------------|
A|--3-------------6-------------4-------------7---------------------------------|




B|------------------------------------------------------------------------------|
F#|-----------------------------------------------------------------------------|
D|------------------------------------------------------------------------------|
A|--3-------------6-------------4-------------3---------------------------------|
E|--3---(x16)-----6---(x16)-----5---(x16)---- 3---(x16)-------------------------|
A|--3-------------6-------------4-------------3---------------------------------|

B|------------------------------------------------------------------------------|
F#|----------

Until Tabs by Sting V2

 Artist|Sting.
Song|Until.
Album|Kate & Leopold(Soundtrack).
|Toneie.

Play In 3/4 time(Waltz).

Intro|
E|------|------|------|------|
B|-00-00|-00-00|-00-00|-00---|
G|-00-00|-00-00|-00-00|-00-3-|
D|-22-22|-22-22|-22-22|-22-2-|
A|------|------|------|----44|
E|0--0--|0--0--|0--0--|0--2--|

Verse#1|"If i could"
E||:------|------|------|------|------|------|------|------:||
B||:-33-33|------|-55---|-33-33|------|-55-55|------|------:||
G||:-44-22|-44-44|-44-33|-44-44|-44-44|-44-44|-33-44|-33-33:||
D||:-44-44|-55-55|-55-44|-44-44|-55-55|-55-55|-44-55|-44-22:||
A||:2-----|-55-55|4---44|2-----|-55-55|4--4--|-444--|-44-44:||
E||:---5--|3--3--|---2--|---5--|3--3--|------|2-----|2--2--:||

Bridge#1|"Here in your arms"
E||:------|------|------|------|------|------|------|------:||
B||:-88-88|-88---|-77-55|----77|-33-33|------|----55|------:||
G||:-99-77|-99-66|-66-66|-77-77|-44-44|-44-44|-33-44|-33-33:||
D||:-99-99|-77-77|-77-77|-99-77|-44-44|-33-33|-44-55|-44-22:||
A||:7-----|----77|5-----|-99---|------|-55-55|-444--|-44-44:||
E||:--10--|9--5--|---9--|7--5--|4--4--|3--3--|2-----|2--2--:||

"If i caught"                   "Until the"            "Until"                                   
E|------|------|------|------|------|------|------|------|------|------|
B|-33-33|------|-55---|-33-33|------|-55-55|-33-33|------|------|------|
G|-44-22|-44-44|-44-33|-44-44|-44-44|-44-44|-44-44|-44-44|-44-44|-44-44|
D|-44-44|-55-55|-55-44|-44-44|-55-55|-55-55|-44-44|-44-44|-55-55|-55-55|
A|2-----|-55-55|4---44|2-----|-55-55|4--4--|2--2--|-55-55|-55-55|-55-55|
E|---5--|3--3--|---2--|---5--|3--3--|------|------|4--4--|3--3--|3--3--|

Verse#2|"One day you`ll"
E||:------|------|------|------|------|------|------|------:||
B||:-44-44|------|-66---|-44-44|------|-66-66|----66|------:||
G||:-55-33|-55-55|-55-44|-55-55|-55-55|-55-55|-44-55|-44-44:||
D||:-55-55|-66-66|-66-55|-55-55|-66-66|-66-66|-55-66|-55-33:||
A||:3-----|-66-66|5---55|3-----|-66-66|5--5--|-555--|-55-55:||
E||:---6--|4--4--|---3--|---6--|4--4--|------|3-----|3--3--:||

Bridge#2|"Your arms where the"                          ¬1st
E||:-----------|---------|-------|--------|------|------|------|------:||
B||:-9-9---9-9-|---------|-88--66|------88|-44-44|------|----66|------:||
G||:-1010--8-8-|--9-9--77|-77--77|-8-8--88|-55-55|-55-55|-44-55|-44-44:||
D||:-1010--1010|--1010-88|-88--88|-8-8--88|-55-55|-44-44|-55-66|-55-33:||
A||:8----------|--8-8--88|6------|-1010---|------|-66-66|-555--|-55-55:||
E||:-----11----|10----6--|---10--|8----6--|5--5--|4--4--|3-----|3--3--:||

 ¬2nd"Dancing`s end"
E|------|------|------|------|
B|---666|---666|---666|66666-|
G|-44555|-44555|-44555|555554|
D|-55666|-55666|-55666|666663|
A|-55---|-55---|-55---|-----5|
E|3-----|3-----|3-----|------|

 "O` and if i caught the"        "Until"
E|------|------|------|------|------|------|------|------|------|
B|-44-44|------|-66---|-44-44|------|-66-66|-44-44|------|------|
G|-55-33|-55-55|-55-44|-55-55|-55-55|-55-55|-55-55|-55-55|-55-55|
D|-55-55|-66-66|-66-55|-55-55|-66-66|-66-66|-55-55|-55-55|-66-66|
A|3-----|-66-66|5---55|3-----|-66-66|5--5--|3--3--|-66-66|-66-66|
E|---6--|4--4--|---3--|---6--|4--4--|------|------|5--5--|4--4--|
                                            "Untiiiil"
E|------|------|------|------|------|------|------|------|------|
B|-66-66|-44-44|------|------|-66---|-44-44|------|------|-66-66|
G|-55-55|-55-55|-55-55|-55-55|-55-44|-55-55|-55-55|-55-55|-55-44|
D|-66-66|-55-55|-66-66|-66-66|-66-55|-55-55|-55-55|-44-44|-66-55|
A|5--5--|3--3--|-55-55|-66-66|5---55|3--3--|-66-66|-66-66|5---55|
E|------|------|5--5--|4--4--|---3--|------|5--5--|4--4--|---3--|

E|------------3|8------------|
B|----4-343----|8------------|
G|----------5--|8------------|
D|--5----------|10-----------|
A|3------------|10-----------|
E|-------------|8------------|