Tag: up

Jessica Jones – Wake Up Wake Up chords by Misc Unsigned Bands

[Intro]
E  A  E  B  E  A  E

[Verse 1]
              A                 E               B
That songbird on my window sill he's singing to me
E                     A         E                B
He sings because he's happy that his life can be free
E           A                     E          B
He tells to all the passers-by a joy in the world
E             A                  B           E
He knows that life is heaven for a boy and a girl

[Chorus]
E
Wake up, wake up
A
Wake up to the morning
E                      B
Wake up to the morning sun

E
Wake up, wake up
A
Wake up to the morning
E                      B
Wake up to the morning sun

E
Tell me, tell me
A
Tell me that you'll see me
E                      B
See me when the day is done

E
Wake up, wake up
A
Wake up to the morning
E
Wake up to the morning sun

E            A
La la laa la la laa laa la
E               B
La la laa la la laaaa

E         A         E
La la laa la la laa laa la
E           B       E
La le la la la lala laaaa

[Verse 2]
E             A            E                     B
That songbird on my window sill he's speaking of you
E           A           E             B             E
He sings because he's happy when each night time is through


[Chorus]
E
Wake up, wake up
A
Wake up to the morning
E                      B
Wake up to the morning sun

E
Wake up, wake up
A
Wake up to the morning
E                      B
Wake up to the morning sun

E
Tell me, tell me
A
Tell me that you'll see me
E                      B
See me when the day is done

E
Wake up, wake up
A
Wake up to the morning
E
Wake up to the morning sun

E            A
La la laa la la laa laa la
E               B
La la laa la la laaaa

E         A         E
La la laa la la laa laa la
E           B       E
La le la la la lala laaaa

[Outro]
E
Wake up, wake up
A
Wake up to the morning
E                      B
Wake up to the morning sun

E
Wake up, wake up
A
Wake up to the morning
E                      B
Wake up to the morning sun

E
Tell me, tell me
A
Tell me that you'll see me
E                      B
See me when the day is done

E
Wake up, wake up
A
Wake up to the morning
E
Wake up to the morning sun

Caught Up Piano Chords by Sarah Close

[Verse 1]
E       F#                          G#m           
Methamphetamine, I'm dressed like a beauty queen
                        E                                
Two step pacing and I'm too intoxicated
                                   F#                    G#m
You're trying to break us down, wish you wouldn't stick around
                  C#m          
I wanna make it home and I'd love to be alone
                                G#m
You annoy me like a tick, tick, tick
G#m
You won't stop talking about defining this
         E        F#
And if it's the truth, I gotta say you're like a piece of real estate
               G#m                                               
You look real nice from the exterior, you're acting so inferior
       E                         F#                                
You're trying to get me naked by getting me wasted
    G#m                                             
In truth, your conversation is actually sedating
                          F#
I'm not drinking, I'm not buying, I'm not lying
                         E
It's not an investment, here is my two cents

[Chorus]
              G#m            C#m         
Why you gotta get so caught up?
              B                 
Overreacting all the time
              G#m            C#m                                    
Why you gotta get so caught up?
                  A             
Let's take this day by day, we'll make it fine
G#m        F#                       
Your complaining is suffocating
         G#m                  E
I'm not pulling away, I just don't like PDA
F#                    B    E  
Why you gotta get so caught?

[Verse 2]
E                       F# 
In the case of you and I, you would be the first to die
        G#m  
In the zombie apocalypse, you'd probably run and trip up
         E                            F#
Bet you'd lie there and complain that life's not fair
       G#m
God, I bet you're even boring whilst the zombies eat your brain
E            F#
I told you it's a two-mile walk home
                           G#m
I may be fucked but I can do it on my own
                               F#
I like the time alone all your yadda yadda in my ear
                            E
Is making me wish that the zombies were really here so

[Chorus]
              G#m            C#m         
Why you gotta get so caught up?
              B                 
Overreacting all the time
              G#m            C#m                                    
Why you gotta get so caught up?
                  A             
Let's take this day by day, we'll make it fine
G#m        F#                       
Your complaining is suffocating
         G#m                  E
I'm not pulling away, I just don't like PDA
F#                    B    E  
Why you gotta get so caught?
G#m        F#                       
Your complaining is suffocating
         G#m                  E
I'm not pulling away, God, we've only had three dates
F#                    B    E  
Why you gotta get so caught?
              G#m            C#m         
Why you gotta get so caught up?

[Bridge]
E
I understand you really wanna make this work
       F#                                            G#m
And I don't have the excuse that you're an absolute jerk
E
I understand you really wanna make this work
       F#                                            G#m
And I don't have the excuse that you're an absolute jerk
E
I understand you really wanna make this work
       F#                                            G#m
And I don't have the excuse that you're an absolute jerk
E
I understand you really wanna make this work
       F#                                            G#m
And I don't have the excuse that you're an absolute jerk

[Chorus]
              G#m            C#m         
Why you gotta get so caught up?
              B                 
Overreacting all the time
              G#m            C#m                                    
Why you gotta get so caught up?
                  A             
Let's take this day by day, we'll make it fine
G#m        F#                       
Your complaining is suffocating
         G#m                  E
I'm not pulling away, I just don't like PDA
F#                    B    E  
Why you gotta get so caught? 
             G#m            C#m         
Why you gotta get so caught up?

[Outro]
E
I understand you really wanna make this work
       F#                                            G#m
And I don't have the excuse that you're an absolute jerk
E
I understand you really wanna make this work
       F#                                            G#m
And I don't have the excuse that you're an absolute jerk
E
I understand you really wanna make this work
       F#                                            G#m
And I don't have the excuse that you're an absolute jerk
E
I understand you really wanna make this work
       F#                                            G#m
And I don't have the excuse that you're an absolute jerk

Caught Up Chords by Sarah Close

[Verse 1]
E       F#                          G#m           
Methamphetamine, I'm dressed like a beauty queen
                        E                                
Two step pacing and I'm too intoxicated
                                   F#                    G#m
You're trying to break us down, wish you wouldn't stick around
                  C#m          
I wanna make it home and I'd love to be alone
                                G#m
You annoy me like a tick, tick, tick
G#m
You won't stop talking about defining this
         E        F#
And if it's the truth, I gotta say you're like a piece of real estate
               G#m                                               
You look real nice from the exterior, you're acting so inferior
       E                         F#                                
You're trying to get me naked by getting me wasted
    G#m                                             
In truth, your conversation is actually sedating
                          F#
I'm not drinking, I'm not buying, I'm not lying
                         E
It's not an investment, here is my two cents

[Chorus]
              G#m            C#m         
Why you gotta get so caught up?
              B                 
Overreacting all the time
              G#m            C#m                                    
Why you gotta get so caught up?
                  A             
Let's take this day by day, we'll make it fine
G#m        F#                       
Your complaining is suffocating
         G#m                  E
I'm not pulling away, I just don't like PDA
F#                    B    E  
Why you gotta get so caught?

[Verse 2]
E                       F# 
In the case of you and I, you would be the first to die
        G#m  
In the zombie apocalypse, you'd probably run and trip up
         E                            F#
Bet you'd lie there and complain that life's not fair
       G#m
God, I bet you're even boring whilst the zombies eat your brain
E            F#
I told you it's a two-mile walk home
                           G#m
I may be fucked but I can do it on my own
                               F#
I like the time alone all your yadda yadda in my ear
                            E
Is making me wish that the zombies were really here so

[Chorus]
              G#m            C#m         
Why you gotta get so caught up?
              B                 
Overreacting all the time
              G#m            C#m                                    
Why you gotta get so caught up?
                  A             
Let's take this day by day, we'll make it fine
G#m        F#                       
Your complaining is suffocating
         G#m                  E
I'm not pulling away, I just don't like PDA
F#                    B    E  
Why you gotta get so caught?
G#m        F#                       
Your complaining is suffocating
         G#m                  E
I'm not pulling away, God, we've only had three dates
F#                    B    E  
Why you gotta get so caught?
              G#m            C#m         
Why you gotta get so caught up?

[Bridge]
E
I understand you really wanna make this work
       F#                                            G#m
And I don't have the excuse that you're an absolute jerk
E
I understand you really wanna make this work
       F#                                            G#m
And I don't have the excuse that you're an absolute jerk
E
I understand you really wanna make this work
       F#                                            G#m
And I don't have the excuse that you're an absolute jerk
E
I understand you really wanna make this work
       F#                                            G#m
And I don't have the excuse that you're an absolute jerk

[Chorus]
              G#m            C#m         
Why you gotta get so caught up?
              B                 
Overreacting all the time
              G#m            C#m                                    
Why you gotta get so caught up?
                  A             
Let's take this day by day, we'll make it fine
G#m        F#                       
Your complaining is suffocating
         G#m                  E
I'm not pulling away, I just don't like PDA
F#                    B    E  
Why you gotta get so caught? 
             G#m            C#m         
Why you gotta get so caught up?

[Outro]
E
I understand you really wanna make this work
       F#                                            G#m
And I don't have the excuse that you're an absolute jerk
E
I understand you really wanna make this work
       F#                                            G#m
And I don't have the excuse that you're an absolute jerk
E
I understand you really wanna make this work
       F#                                            G#m
And I don't have the excuse that you're an absolute jerk
E
I understand you really wanna make this work
       F#                                            G#m
And I don't have the excuse that you're an absolute jerk

All Buttoned Up chords – Richard Thompson

 D G D G 
I got a girl - best girl in the world 
 D G D                        
But she won't give me a taste of it 
 D G D G 
Saving her bed - maidenhead 
 D G D            
That's what I call a waste of it
 D G D G 
Crosses her arms - to hide all her charms
 D G D            
Like she's living in a nunnery
 D G D G 
Gives me a wink - drive me to drink
 D G D 
I know she's only making fun of me

CHORUS
          D C F C 
She's all      buttoned up
          D C F C 
She's all      buttoned up
          D C F C 
She's all      buttoned up
    D C F C/E 
All buttoned up, no place to go

 D G D G 
She don't mind a squeeze - if I say please
 D G D            
I might even manage a kiss of her
 D G D G 
But I'll get a slap - if I sit her on my lap
 D G D            
I call that so remiss of her

CHORUS
          D C F C 
She's all      buttoned up
          D C F C 
She's all      buttoned up
          D C F C 
She's all      buttoned up
    D C F C/E 
All buttoned up, no place to go

 C F 
She hates the stuff I bring her
 C F 
She wants diamonds on her finger
 B E 
She wouldn't let me in
  Em/B Em/Bb Em/A Em/Ab 
Frothing at the mouth and barking
 Em/G Em/F# Em/E D 
On all fours like Rin Tin Tin
 D G D G 
My girl Kate - she wants me to wait
 D G D                        
But I got urges, don't I?
 D G D G 
I got desires - raging fires
 D G D                        
But I'll do the right thing, won't I?

CHORUS
          D C F C 
She's all      buttoned up
          D C F C 
She's all      buttoned up
          D C F C 
She's all      buttoned up
    D C F C/E 
All buttoned up, no place to go

 C F 
She changes with the weather
 C F 
She keeps her knees together
 B E 
But she dresses so racy
 Em/B Em/Bb Em/A Em/Ab 
Drawing Man into temptation
 Em/G Em/F# Em/E D 
With everything silky, satiny, lacy

 D G D G 
I got a girl - best girl in the world
 D G D 
But she won't give me a taste of it
 D G D G 
Saving her bed – maidenhead
 D G D 
That's what I call a waste of it

CHORUS
          D C F C 
She's all      butto

Wake Me Up Tabs – Peer Günt

 notation legend:      

~   vibrato
b   bend       


Intro/chorus:

E|---------------|---------------|----------------|-----------------|
B|---------------|---------------|----------------|-----------------|
G|---------------|---------------|----------------|-----------------|
D|---------------|---------------|-5--7-7-5-7--5--|----2-2-----2-2--|
A|-------5--7~~--|-------5--7~~--|-3--5-5-3-5--3--|----0-0-----0-0--|
E|-0--0----------|-0--0----------|----------------|-3b------3b------|


Verse:

E|------------------|------------------|
B|------------------|------------------|
G|-----2---5-2---4--|------------------|
D|-----2---5-2---4--|------------------|
A|-0-0---0-----0----|--3-0----3-0---3--|
E|------------------|------3------3----|


E|-------------------|
B|-------------------|
G|-------------------|
D|-------------------|
A|-2--2-4--2-5--2-4--|
E|-0--0-0--0-0--0-0--|


Bridge:

E|------|------|------|------|-----------------|
B|------|------|------|------|-----------------|
G|--2---|--7---|--2---|--7---|-----------------|
D|--2---|--7---|--2---|--7---|--5--7-7-5-7--5--|
A|--0---|--5---|--0---|--5---|--3--5-5-3-5--3--|
E|------|------|------|------|-----------------|


Solo intro:

4x
E|---------------|
B|---------------|
G|---------------|
D|---------------|
A|-------5--7~~--|
E|-0--0----------|


Solo outro: 

E|---------------------|
B|---------------------|
G|-7--5----------------|
D|-----7-6-5-----------|
A|-----------7-6-5-----|
E|-----------------0---|

Twos Up Tabs – AC/DC V3

 -------------------------------------------------------------------------------
                             Twos Up - AC/DC
-------------------------------------------------------------------------------
: jothunder

Tuning: Standard

Disclaimer: This tab does not contain the guitar solo!

-------------------------------------------------------------------------------
    LEAD GUITAR

INTRO

e|-----------------------------------------------------------------|
B|-----4-----3-----4-----4-----3-------4-----3-----4-----4-----3---|
G|-5---3-----3-----3-----3-----3---3---3-----3-----3-----3-----3---|
D|-5-------------------------------3-------------------------------|
A|-3-------------------------------1-------------------------------|
E|-----------------------------------------------------------------|

e|-----------------------------------------------------------------|
B|-----4-----3---------4-----3---------4-----3---------4-----3-----|
G|-----3-----3---------3-----3---------3-----3---------3-----3-----|
D|-3---------------5---------------6---------------8---------------|
A|-3---------------5---------------6---------------8---------------|
E|-1---------------3---------------4---------------6---------------|

e|-8-8-8-8-8-8-8-8-8-8-8-8-6-6-5-5-|
B|-8-8-8-8-8-8-8-8-8-8-8-8-6-6-6-6-|
G|-5-5-5-5-5-5-5-5-5-5-5-5-5-5-5-5-| Play
D|---------------------------------|  3x
A|---------------------------------|
E|---------------------------------|

e|-----------------------------------------|
B|-----4-----4-----4-----4-------3---------|
G|-----------------------------------------|
D|---5-----5-----5-----5-------5-----------|
A|-3-----3-----3-----3-------5-------------|
E|-------------------------3---------------|

e|-----------------------------------------------------------------|
B|-----4-----3-----4-----4-----3-------4-----3-----4-----4-----3---|
G|-5---3-----3-----3-----3-----3---3---3-----3-----3-----3-----3---|
D|-5-------------------------------3-------------------------------|
A|-3-------------------------------1-------------------------------|
E|-----------------------------------------------------------------|

e|-----------------------------------------------------------------|
B|-----4-----3---------4-----3---------4-----3---------4-----3-----|
G|-----3-----3---------3-----3---------3-----3---------3-----3-----|
D|-3---------------5---------------6---------------8---------------|
A|-3---------------5---------------6---------------8---------------|
E|-1---------------3---------------4---------------6---------------|


e|---------------------------------|
B|---------------------------------|
G|-5-5-5-5-5-5-5-5-5-5-5-5-3-3-2-2-| Play
D|-5-5-5-5-5-5-5-5-5-5-5-5-3-3-3-3-|  2x
A|-3-3-3-3-3-3-3-3-3-3-3-3-1-1-3-3-|
E|---------------------------------|


VERSE

e|------------------------------------------------------------------|
B|------------------------------------------------------------------|
G|-5\---x---------------------------------------------8-x---x-8-x---|
D|-5\---x---x-3-x-5-x---x---x-5-x-6-x---x---x-6-x-8-x-8-x---x-8-x---|
A|-3\---x---x-3-x-5-x---x---x-5-x-6-x---x---x-6-x-8-x-6-x---x-6-x---|
E|----------x-1-x-3-x---x---x-3-x-4-x---x---x-4-x-6-x---------------|

e|-------------------------------------------------------------------|
B|-------------------------------------------------------------------|
G|-5\---x------------------------------------------------------------|
D|-5\---x---x-3-x-5-x---x---x-5-x-6-x---x---x-6-x-8-x----------------|
A|-3\---x---x-3-x-5-x---x---x-5-x-6-x---x---x-6-x-8-x---------8-6----|
E|----------x-1-x-3-x---x---x-3-x-4-x---x---x-4-x-6-x-6-8-6-8--------|

e|------------------------------------------------------------------|
B|------------------------------------------------------------------|
G|-5\---x---------------------------------------------8-x---x-8-x---|
D|-5\---x---x-3-x-5-x---x---x-5-x-6-x---x---x-6-x-8-x-8-x---x-8-x---|
A|-3\---x---x-3-x-5-x---x---x-5-x-6-x---x---x-6-x-8-x-6

2014 Grammy Record Of The Year Mash Up chords – Anthem Lights

 Capo on 5th fret

 G 
One two three one to three (shake)
 Bm 
One two three one two three (base)
 A A 
One two three one two three (staaaay)

 D A Bm 
I'm so fancy, you already know
 D A Em 
I'm in the fast lane, from LA to Tokyo

(I stay out to late)

 Bm G D 
These nights never seem to go to plan

(And I got nothing in my brain)

 Bm G D 
I don't want you to leave will you hold my hand (will you hold my hand)

(So darling)

 G A D 
I'm gonna swing from the chandelier
           G 
From the chandelier
 G A D 
I'm gonna live like tomorrow doesn't exist
          G 
Like it doesn't exist

                 Em 
I never miss a beat
(yeah it's pretty clear)
                      G 
I'm lightning in my feet
(But I can shake it shake it like I'm 
supposed to do)
 D                                    
Shake it off, shake it off
            D(mute)
(Cause every inch of you is perfect from 
the bottom to the top)

         Em 
Cuz the players gonna 
play play play play play
          G 
And the haters gona
Hate hate hate hate hate baby
 D 
I'm just gona 
Shake shake shake shake shake 
Shake it off shake it off
         Em 
Heart breakers gonna 
Break break break break break
         G 
And the fakers gonna
Fake fake fake fake fake baby
 D 
I'm just gonna 
Shake shake shake shake shake
                            D 
Shake it off shake it off oh oh oh

 Em 
I'm just so fancy (you already know)
 G 
So I'm just gona shake (because you know Im
 D 
All about that base (oh oh oh)
 D 
Ah ah ah ah
            C#m A E 
So won't you stay with me
            C#m A E 
Because you're all I need
           C#m A E 
This ain't love it's clear to see 
           C#m A E 
So darling stay with me
           C#m A E 
This ain't love it's clear to see
           C#m A E 
So darling staaaay with me.


Up To You Tabs – Echosmith

 -------------------------------------------------------------------------------
                             Up to You - Echosmith 
-------------------------------------------------------------------------------

:Mark Donohue 
mwdonohue@verizon.net 

Tuning:Standard 

e|---------------------------------------------------------------------------| Intro 
B|------------------6-----------8-----------6-------5------------------------|
G|----------5---7-5-----5---7-5-----5---7-5---5-8p6---6----------------------|
D|---3H---7---7-------7---7-------7---7--------------------------------------|
A|---------------------------------------------------------------------------|
E|---------------------------------------------------------------------------|

e|---------------------------------------------------------------------------| Intro 
B|-------------6-----------8-----------6-------5-----------------------------|
G|-----5---7-5-----5---7-5-----5---7-5---5-8p6---6---------------------------|
D|---7---7-------7---7-------7---7-------------------------------------------|
A|---------------------------------------------------------------------------|
E|---------------------------------------------------------------------------|

e|---------------------------------------------------------------------------| Verse 1 
B|---10-8-6-6---8-8-6-8-10---8-8-6-8-10--------------------------------------|
G|-------------------------5------------5\2----------------------------------| Want you to come back to 
D|---------------------------------------------------------------------------| me/Oh cause you wanted to, 
A|---------------------------------------------------------------------------| not cause you needed to 
E|---------------------------------------------------------------------------|

e|---------------------------------------------------------------------------| Verse 1 
B|---6-8/10-8-8-6---8-8-6-8/10---8-6-8/10------------------------------------|
G|-----------------------------5----------5----------------------------------| You're all that I need/
D|---------------------------------------------------------------------------| Oh, and I love you, yes I
A|---------------------------------------------------------------------------| love you 
E|---------------------------------------------------------------------------|

e|-----8-5-10-10-8-5---------------------------------------------------------| Verse 1 
B|---------------------------------------------------------------------------|
G|---5-----------------6-8-8-6-6---------------------------------------------| I wear my heart on my sleeve/
D|---------------------------------7-7-7-------------------------------------| It's just what I do 
A|---------------------------------------------------------------------------|
E|---------------------------------------------------------------------------|

e|---------------------------------------------------------------------------| Verse 1 
B|-----6-6-8/10-8-6-6---8-8-8-6-8-10-11-10-------8-8-6-6---------------------|
G|---7-------------------------------------7---7-----------------------------| But if there's too much to 
D|---------------------------------------------------------------------------| leave, won't hold it against 
A|---------------------------------------------------------------------------| you/It's all up to you 
E|---------------------------------------------------------------------------|

e|---------------------------------------------------------------------------| Chorus x2 
B|-------------6-----------8-----------6-------5-----------------------------|
G|-----5---7-5-----5---7-5-----5---7-5---5-8p6---6---------------------------| It's all up to you/ 
D|---7---7-------7---7-------7---7-------------------------------------------| It's all up to you 
A|---------------------------------------------------------------------------|
E|---------------------------------------------------------------------------|

e|-----

Wake Up chords – Nf

 Hey guys!  so please don't give me to many negative remarks.
This sounds accurate to me.

-------------
Song: Wake Up
Artist: NF
 NF-EP
-------------

Chords used:
 Bbm F# C# 

If you have a piano, the key you play for the intro is C#

INTRO (play each chord for 4 beats):

 Bbm F# Bbm F# 

CHORUS:

 Bbm 
You spend your life in a dream that you can't escape

 F# 
Cause you live your life in a coma, you never awake

 Bbm 
If you opened your eyes, then maybe you'd see what's at stake

 F#       
You're sleeping

 C# 
You're sleeping

The rest of the song pretty much repeats that way

Kick The Dust Up intro Tabs – Luke Bryan

 -------------------------------------------------------------------------------
                             SONG NAME - Band Name
-------------------------------------------------------------------------------
: alzaik
 n/a
Q=quarter, E=eighth, H=half note

Tuning:Standard, 4/4 time, Q = 160

     Q       Q     E     E     Q        Q   Q    Q     Q
e|----------------------------------|------------------7---------------------|
B|-----------9-----7----------------|-------7----9---------------------------|
G|-----------------------8-----6----|---8------------------------------------|
D|---6------------------------------|----------------------------------------|
A|----------------------------------|----------------------------------------|
E|----------------------------------|----------------------------------------|

     Q       Q     E     E     Q        Q   Q    H     
e|----------------------------------|----------------------------------------|
B|-----------9-----7----------------|-------7----9---------------------------|
G|-----------------------8-----6----|---8------------------------------------|
D|---6------------------------------|----------------------------------------|
A|----------------------------------|----------------------------------------|
E|----------------------------------|----------------------------------------|


Repeats until around 0:35

************************************

| /   slide up
| \   slide down
| h   hammer-on
| p   pull-off
| ~   vibrato
| +   harmonic
| x   Mute note
| b   Bend
| pb  Pre-bend
| br  Bend release
| pbr Pre-bend release
| brb Bend release bend

************************************

Fuck Up chords – Shane Dawson V3

 THIS IS ONE OF MY FAVOURITE SHANE DAWSON SONGS HAHA
THE  F  CHORD TOWARDS THE END ISNT NECESSARY IF YOU CANT PLAY IT, BY THE WAY.

Capo 3


VERSE 1
   G 
I woke up on the wrong side of the floor
    D 
My clothes still smell like the night before
       C 
Where am I?
                       D 
Why am I talking to myself? ((self))


            G 
I'm like a fat-kid running through a candy store
        D 
Like a nymph surrounded by a bunch of whores
     C D 
Why can't I just get control over myself? ((self))


PRECHORUS

         G 
I'm not trying to be a saint
         D 
I don't wanna be president someday
          C 
I'm just trying to make my way 
 D 
Yeah


CHORUS:
                 G 
I'm sorry I'm a fuck up, yeah
   D 
I can't do nothing right
                 C 
I'm sorry I'm a fuck up, yeah
          D 
It ain't no ones fault but mine
                 G 
I'm sorry I'm a fuck up, yeah
   D 
I can't do nothing right
                 C 
I'm sorry I'm a fuck up, yeah
           D 
So if you fuck up all the time, let's all sing.


 G 
Oops my bad 
   D 
I never said
     C D 
I'd ever get it right

Dada da da dada


VERSE 2

    G 
My girlfriend told me that she wants a break,
          D 
And that being with me is what turned her gay
        C 
What's with me?
                              D 
Why does this happen all the time? ((time))


            G 
I'm like a blind man walkin through a perfume shop
            D 
I'm like a black guy switching lanes infront of the cops 
     C D 
Why can't I just get control over myself? ((self))


PRECHORUS
         G 
I'm not trying to be a saint
         D 
I don't wanna be president someday
          C 
I'm just trying to make my way 
 D 
Yeah


CHORUS:
                 G 
I'm sorry I'm a fuck up, yeah
   D 
I can't do nothing right
                 C 
I'm sorry I'm a fuck up, yeah
          D 
It ain't no ones fault but mine
                 G 
I'm sorry I'm a fuck up, yeah
   D 
I can't do nothing right
                 C 
I'm sorry I'm a fuck up, yeah
           D 
So if you fuck up all the time, let's all sing.


 G 
Oops my bad 
   D 
I never said
     C D 
I'd ever get it right

Dada da da dada



BRIDGE:

 G 
I'm just a bad luck charm
 D 
To blame when things go wrong
 C 
Been cursed since I was born
    D 
Maybe one day I'll change
     F C D 
But now all I can say is...


CHORUS:
                 G 
I'm sorry I'm a fuck up, yeah
   D 
I can't do nothing right
                 C 
I'm sorry I'm a fuck up, yeah
          D 
It ain't no ones fault but mine
                 G 
I'm sorry I'm a fuck up, yeah
   D 
I can't do nothing right
                 C 
I'm sorry I'm a fuck up, yeah
           D 
So if you fuck up all the time, let's all sing.


 G 
Oops my bad 
   D 
I never said
     C D 
I'd ever get it right

Dada da da dada!


(Ah fuck it.)

You Raise Me Up chords – Josh Groban V8

 B E B G#m E F# F#sus4 F# G#m E B E B F# B B E B 
When I am down and, oh my soul, so weary;             
                B E F# F#sus4 F# 
When troubles come and my heart burdened be;     
              G#m E B E 
Then, I am still and wait here in the silence,   
             B F# B 
Until you come and sit awhile with me.              

 
Chorus:
              G#m E B F# 
You raise me up, so I can stand on mountains;                           
               G#m E B F#     
You raise me up, to walk on stormy seas;           
          G#m E B E 
I am strong, when I am on your shoulders;
              B F# B 
You raise me up to more than I can be.              

 C# Ab Ab Db C# F# C# 
There is no life, no life without its hunger,
               A#m F# G# 
Each restless heart beats so imperfectly,
              A#m F# C# F# 
But when you come, and I am filled with wonder,
             A#m G# C# 
Sometimes I think I glimpse eternity


Repeat chorus with key change (E)
              A#m F# C# G# 
You raise me up, so I can stand on mountains                           
              A#m F# C# G#     
You raise me up, to walk on stormy seas           
          A#m F# C# F# 
I am strong, when I am on your shoulders
              C# G# C# 
You raise me up to more than I can be.  
    

Repeat chorus (x2) with key change (F)
 Bm Bm G D A 
   You raise me up, so I can stand on mountains                           
              Bm G D A     
You raise me up, to walk on stormy seas           
          Bm G D G 
I am strong, when I am on your shoulders
              D A D 
You raise me up to more than I can be.      

Caught Up In You chords – 38 Special V3

 E B  4x

 E B/D# C#m B A 
I never knew there'd come a day 
 B E 
When I'd be saying to you 
        B/D# C#m B A B 
"Don't let this good love slip away 
                            A 
Now that we know that it's true." 
 C#m B A 
Don't, don't you know the kind of man I am 
 C#m B A 
No, said I'd never fall in love again 
          E/G# A F#9/A# B 
But it's real and the feeling comes shining through. 

 B A E/G# 
So caught up in you, little girl 
       F#m A C#m 
And I never did suspect a thing 
                A E/G# 
So caught up in you, little girl 
        F#m A C#m 
That I never want to get myself free 
               A 
And baby it's true 
            E/G# 
You're the one 
     F#m7 E/G# A                   
Who caught me baby you taught me 
     F#9/A# B 
How good it could be 

 E B/D# C#m B A 
It took so long to change my mind 
 B E 
I thought that love was a game
   B/D# C#m B A 
I played around enough to find 
 B         
No two are ever the same 
 C#m B A 
You made me realized the love I missed 
 C#m B A 
So hot! Love I couldn't quite resist 
          E/G# A F#9/A# B 
When it's right the light just comes shining through.
 
                A E/G# 
So caught up in you, little girl 
        F#m A C#m 
You're the one who's got me down on my knees
                A E/G# 
So caught up in you, little girl 
        F#m A C#m 
That I never want to get myself free
               A 
And baby it's true 
            E/G# 
You're the one 
     F#m7 E/G# A                   
Who caught me baby you taught me 
     F#9/A# B 
How good it could be 

 C#m F#m 
Fill your days and your nights 
            B E B C#m 
No need to ever ask me twice oh no 
 F#m B 
Whenever you want me 
        C#m F#m 
And if ever comes a day 
                 B E B C#m 
When you should turn and walk away oh no 
                  B 
I can't live without you 
 A C#m 
So caught up in you 

break

 A C#m F#m 
And if ever comes a day
                 B E B C#m 
When you should turn and walk away oh no 
 F# B 
I can't live without you 
                A E/G# 
So caught up in you , little girl 
            F#m A C#m 
You're the one that's got me down on my knees 
                A E/G# 
So caught up in you, little girl 
        F#m A C#m 
That I never want to get myself free 
               A 
And baby it's true 
            E/G# 
You're the one 
     F#m7 E/G# A                   
Who cau

Light Me Up chords by Kevin Max

 "Broken Temples"

**No copyright infringement intended.**
**Private use only**

Tunning: Standard (E  A D G B E  )

Intro: 

 A E D F#m E  (X2)



Verse 1:

   A E 
I walked alone without a compass or map

 D F#m E 
Stars still glowing in this aftermath

      A E D F#m E 
Of a life spent wandering off the path, oh no

    A E 
If life's long lesson were a fairy tale

     D F#m E 
I'd still be searching for the holy grail

 A E D F#m E  
Looking for a sign under every unturned stone



Pre-Chorus:

        F#m E 
‘Cause that's where I was when You found me

 F#m E 
That's where I was when You found me



Chorus:

     A E 
You light me up, You light me up

     F#m D 
Out of the dark you changed my heart

 A E F#m D 
Gave me a mission gave my life a permission to grow

     F#m E 
You light me up, You light me up

   C#m D 
I once was lost and now I'm not

 A E F#m D 
You sanctify me; give my life direction alone

     A A 
You light me up, You light me up


Instrumental: 

 A E D F#m E  (X2)



Verse 2:

 A E 
Through the chaos and the numbing chill

 D F#m E 
Down in the valley up the tallest hill

        A               
Inside every broken temple

      E D      
Is a space for You to fill



Instrumental:

 F#m E C#m D  (X2)



Bridge:

 F#m E C#m D              
Change, this change I feel it down deep in my bones

 F#m E C#m D 
Change, this change I know that there is something more

 D E 
More than just words, more than just a feeling

 C#m D 
More than just a place Your spirit is revealing

 D E 
More than just acceptance, more than just a tone

 C#m D 
More than just a touch, when you're feeling alone

     A A 
You light me up, You light me up

You Trip Me Up chords – The Jesus And Mary Chain

 You Trip Me Up - The Jesus and Mary Chain
Tuning: Half Step Down (Eb Ab Db Gb Bb Eb)

 G C D 
Sometimes
        G C D 
I walk sideways
        G C D 
To avoid you
           G C D 
When I've annoyed you

 G C D 
Love's like
            G C D 
The mighty ocean
            G C D 
When it's frozen
              G C D 
That is your heart


 G C D 
What would I be
           G C D 
If I could be free
               G C D 
I couldn't even walk
         G C D 
You trip me up


 G C D 
But you break me in two
              G C D 
And you throw me away
                 G C D 
And you spit on my head
           G C D 
You trip me up


 G C D 
And you break me in two
             G C D 
And you throw me away
           G C D 
Knock me on my back
               G C D 
I'll send a heart attack

 G C D 
I'd like to trip you up
 G C D 
I'd like to trip you up
 G C D 
I'd like to trip you up
 G C D 
I'd like to trip you up

 G C D 
I'd like to trip
 G C D 
I'd like to trip
 G C D 
I'd like to trip you up
 G C D 
I'd like to trip you up

You Never Give Up On Us chords – Beth Croft

 =========================================================================================================
Song: You Never Give Up On Us
Artist: Beth Croft 
 We Are The Free
=========================================================================================================
Intro:
 C G  

Chorus:
 C 
You never give up on us
 G Am 
You never let go or turn away
 Am 
We're holding on to you
     F 
Our God is strong, Our God is good[x2]

Instrumental:  C F C F C F 

Verse 1:
              C 
Your the God of salvation
                G 
We call on your name, You came to redeem us
 F 
Carry our shame
               Am 
We stumble and fall down
                 G 
We turn from your ways
                  C 
But in you we find mercy
                  F 
We're held in your grace
             Am G 
Held in your grace 

Chorus:
 C 
You never give up on us
 G Am 
You never let go or turn away
 Am 
We're holding on to you
     F 
Our God is strong, Our God is good 

Instrumental:  C F C F 

Verse 2:
               C 
Your the God of compassion
                    G 
The friend of the least, 
                 Am 
Not coming to be served
 F 
Your serve those in need
                 Am 
We surrender our burdens
                 G 
Our lives at Your cross
                       C F 
We trust in the Saviour the God who is Love
           Am G 
Our God is Love

Chorus:
 C 
You never give up on us
 G Am 
You never let go or turn away
 Am 
We're holding on to you
     F 
Our God is strong, Our God is good[x2] 

Instrmental:  C F C F C F 

Chorus:
 C 
You never give up on us
 G Am 
You never let go or turn away
 Am 
We're holding on to you
     F 
Our God is strong, Our God is good[x2]

Outro:
 C 
=========================================================================================================
Enjoy and God Bless-x-
=========================================================================================================

Leaving It Up To You chords – George Ezra

 Intro:D,D,D,G,D,D,F#m,G
 D G D 
I walk past the buildings of an architect's un-imagination
 D G D 
Returning to the venue where we had that very first conversation
 D G D 
To see you again, to be your friend, to hold you in my mind

Instrumental:D,D,D,D,G x2

 D G D 
And I arrived there early and as always you swanned in much later
 D G D 
As if nothing had ever changed, you nod at me and order your double mixer
 D G D 
To see you again, to be your friend, to hold you in my mind

 D 
Leaving it up, leaving it up, leaving it up
 G 
Leaving it up to you
 D 
Leaving it up, leaving it up, leaving it up
 G 
Leaving it up to you

Instrumental:D,D,D,D,G x2

 D G D                    
And I've been told your new playmate's successful and he's handsome and he's charming
 D G D 
It's a damn good job he isn't here or I may have wind up harming your darling
 D G D 
To see you again, to be your friend, to hold you in my mind

 D 
Leaving it up, leaving it up, leaving it up
 G 
Leaving it up to you
 D 
Leaving it up, leaving it up, leaving it up
 G 
Leaving it up to you
 D 
Leaving it up, leaving it up, leaving it up
 G 
Leaving it up to you
 D G 
Leaving it up, leaving it up, leaving it up
 F#m 
Leaving it up to you

Instrumental:D,D,D,D,G x2

 D G D 
We laughing and we joking like we always, always used to
 D G D  
Too rudely interrupted by your half-wit of a boyfriend who tries to call you
 D Em G D 
To see you again, to be your friend, to hold you in his mind

 D 
Leaving it up, leaving it up, leaving it up
 G 
Leaving it up to you
 D 
Leaving it up, leaving it up, leaving it up
 G 
Leaving it up to you
 D 
Leaving it up, leaving it up, leaving it up
 G 
Leaving it up to you
 D 
Leaving it up, leaving it up, leaving it up
 G 
Leaving it up to you
 D 
Leaving it up, leaving it up, leaving it up
 G D 
Leaving it up to you

Wake Up Ma And Pa Are Gone chords – Bound Stems

 Db Ab  x6

 Db 
I shake 
 Ab 
my head 
 Db 
at how 
 Ab Db 
perfect some song will sound in my car, 
 Ab Db Ab 
driving toward the country for the month. 

 Db 
I am 
 Ab         
still on 
 Db 
the make,                    
      Ab Db 
and this place is full of friends that I've known, 
      Ab Db Ab 
they saw me too and laughed a warm laugh again.

 Fm Ab 
Lay on 
      Db Ab 
the warm grass of my lawn 
      Fm Ab 
and shake hands, 
       Db Ab 
"I've met you once before". 
 Fm Ab Db Ab 
Call to the neighbors down below, 
             Fm Ab Db Ab 
tell them "Wake up! Ma and Pa are gone!"

 Db Ab  x2

 Db 
Don't waste 
 Ab 
a breath. 
 Db 
How could 
 Ab Db 
you spent your life on something so cold?
        Ab Db Ab 
it's flickered out you're lost and you're scared now. 

     Db 
And I need 
 Ab 
this life, 
 Db 
these friends, 
 Ab Db 
my home. I'm on the curb smiling
 Ab Db 
remember this 'cause things are never that bad.

 Eb Db Fm  x2

 Eb Db Fm 
You feel right. 
 Eb Db Fm 
I was probably scared. 
      Eb Db Fm 
While I was gone, 
 Eb Db Fm 
you were sleeping upstairs. 
     Eb Db Fm 
When I first heard
 Eb Db Fm 
you barely made a sound. 
    Eb Db Fm 
And I fell first
 Eb Db Fm 
isn't it perfect how?
    Db Eb Ab 
it all comes down 
 Db Eb Ab 
to a moment like this
      Db Eb Ab 
when I'm leaving for 
   Db Eb Ab 
something bigger than us. 
 Db Eb Fm 
Remember that. 
 Db Eb Fm 
Remember that? 
    Db Eb Ab 
I called my mom and she said 
        Db Eb Ab 
she's never been so impressed.

 Ab Eb Db  x4

 Ab Bbm Db Ab Eb Db  x7

Tangled Up In You Tabs – Aaron Lewis V3

 : Phillip Howe
howephillip7
Song: Tangled up in you
Artist: Aaron Lewis

Tuning C# Ab C# F Ab C#

Tabbed & Tuned from this video:



INTRO:

C#|--------------------------------|
Ab|--------------------------------|
F |----0----0----5----5------------|
C#|---2----2----7----7-------------|    X2
Ab|--0----0----5----5--------------|
C#|-0----0----5----5---------------|


Verse: Same pattern

C#|--------------------------------|
Ab|--------------------------------|
F |----0----0----5----5------------|
C#|---2----2----7----7-------------|    X4
Ab|--0----0----5----5--------------|
C#|-0----0----5----5---------------|


Chorus:

C#|--------------------------------|
Ab|--------------------------------|
F |-----8-----8----5----5----------|
C#|---11----11----7----7-----------|    X2
Ab|--9-----9----5----5-------------|
C#|-9-----9----5----5--------------|


Bridge:

C#|--------------------------------|
Ab|--------------------------------|
F |----8----5----0----7------------|
C#|---11---7----2----9-------------|    X2
Ab|--9----5----0----7--------------|
C#|-9----5----0----7---------------|

You Fucked Up Tabs – Ween V2

 chord shape:
F#
EADGBE
577655

x3 ?
E-----------------------|--------------|-------|
B-----------------------|--------------|-------|
G-----------------------|--------------|--3-32-|
D-2--2--5--2--2--7--7-10|-5--5--5--5--5|-------|
A-2--2--5--2--2--7--7-10|-5--5--5--5--5|-------|
E-0--0--3--0--0--5--0--8|-3--3--3--3--3|-------|

?
E------------------------------------------------------------|
B------------------------------------------------------------|
G------------------------------------------------------------|
D--2/---14----12-11--9\10-----2--2--2--5--7\-8b9--2----------|
A--2/---14----12-11--9\10-----2--2--2--5--7\-8b9--2----------|
E--0/---12----10--9--7\-8-----0--0--0--3--5\-6b7--0----------|

** Abyss101