Tag: upon

Anastasia – Music From The Motion Picture – Once Upon A December chords by Misc Soundtrack V2

[Intro]

Am E Am E


[Verse 1]

Am      E      A7      Dm
Dancing bears, painted wings
Dm       Am      Dm   E
Things I almost remember
Am    E    A7      Dm
And a song someone sings
Dm     Am     E   Am
Once upon a December


[Chorus 1]

Dm               Am
Someone holds me safe and warm
E                       Am     A7
Horses prance through a silver storm
Dm              Am
Figures dancing gracefully
 B7           E
Across my memory


[Instrumental]

Bbm  F  Bb7  Ebm
Ebm  Bbm  Ebm  F
Bbm  F  Bb7  Ebm
Ebm  Bbm  C7  F
Bbm  F  Bb7  Ebm
Ebm  Bbm  F  Bbm


[Chorus 2]

Ebm              Bbm
Someone holds me safe and warm
F                       Bbm    Bb7
Horses prance through a silver storm
Ebm             Bbm
Figures dancing gracefully
 C7           F
Across my memory


[Verse 2]

Bm   F#   B7    Em
Far away, long ago
Em      Bm        Em  F#
Glowing dim as an ember
Bm        F#    B7      Em
Things my heart used to know
Em        Bm          F#  B7
Things it yearns to remember


[Outro]

Em         Bm      B7
And a song someone sings
Em    Bm      F#  Bm
Once upon a December

Once Upon A Dream Tabs – Lana Del Rey

 -------------------------------------------------------------------------------
                             Once Upon A Dream - Lana Del Rey
-------------------------------------------------------------------------------
: DarthCindy22
 Not available 

This is the Acoustic Version, please enjoy :3 Play all of this like- twice?


Tuning: Standard
Verse 1
e|---------------------------------------------------------------------------|
B|--------------------6-11-13-10-11------------------------------------------|
G|13-12-13-10-11-13-10-------------------------------------------------------|
D|---------------------------------------------------------------------------|
A|---------------------------------------------------------------------------|
E|---------------------------------------------------------------------------|

Verse 2
e|---------------------------------------------------------------------------|
B|---------------------------------------------------------------------------|
G|---------------------------------------------------------------------------|
D|13-12-11-8-15-13-15-12-11-9--9---------------------------------------------|
A|---------------------------12----------------------------------------------|
E|---------------------------------------------------------------------------|

Verse 3
e|---------------------------------------------------------------------------|
B|---------------------------------------------------------------------------|
G|--------------------------------12-9-10------------------------------------|
D|12-13-14-13-14-11-13-14-11-13-15-------------------------------------------|
A|---------------------------------------------------------------------------|
E|---------------------------------------------------------------------------|

Verse 4- Just so y'all know verse 4&5 are both together but on different verses.
e|---------------------------------------------------------------------------|
B|---------------------------------------------------------------------------|
G|---------------------------------------------------------------------------|
D|11-12-11--14-11-12-13-14-16------------------------------------------------|
A|--------11-----------------------------------------------------------------|
E|---------------------------------------------------------------------------|

Verse 5 (Part 2 of verse 4)
e|---------------------------------------------------------------------------|
B|---------------------------------4-----------------------------------------|
G|----------------------------9-8-7------------------------------------------|
D|13-15-12-13-10-12-13-12-10-9-----------------------------------------------|
A|---------------------------------------------------------------------------|
E|---------------------------------------------------------------------------|

Chorus. (Ahh-ah,Ahh-ah,Ahh-ah-ah.) -Repeat this twice!)
e|---------------------------------------------------------------------------|
B|14-13-----14-13-----14-13--------------------------------------------------|
G|-------------------------12------------------------------------------------|
D|---------------------------------------------------------------------------|
A|---------------------------------------------------------------------------|
E|---------------------------------------------------------------------------|

Verse 6 (Do verse 4 and 5 again basically....)
e|---------------------------------------------------------------------------|
B|---------------------------------------------------------------------------|
G|---------------------------------------------------------------------------|
D|11-12-11--14-11-12-13-14-16------------------------------------------------|
A|--------11-----------------------------------------------------------------|
E|---------------------------------------------------------------------------|

Verse 7 (Part two of verse 6)
e|----------------------------------

Heart Upon My Sleeve Tabs by Avicii

 Heart Upon My Sleeve by Avicii

Hey Guys
I learned the most of the intro to this song from the other tabs but I wanted to 
make my own because something was a little off. 
I'm not saying this will be 100% correct but I think it sounds pretty good.

Tuning: Standard

*Credit to Mattias Krantz for Part 1 (slightly altered by me)
The rest is my interpretation of the song

If you like it please rate and I'll do more. Thanks
-Chris Doan


Part 1:

e|---------------------------|--------------------------|----------------------|
B|----------------0h1p0------|--------------------------|--------0------0------|
G|---------0-------------2p0-|-------0-----0h2p0----0--|-----------------------|
D|------2-----2--------------|-----0---0----------4-----|------1-----1-----1---|
A|---3-----------------------|--------------------------|---2-----2------2-----|
E|---------------------------|--3-----------------------|----------------------|
 
e|---0---0----------|
B|---5---3----------|
G|-----------4/2-0--|
D|------------0-(0)-|
A|---3--------------|
E|------------------|

e|--------------------------|--------------------------|----------------------|
B|---------------0h1p0------|--------------------------|--------0------0------|
G|---------0------------2p0-|-------0----0h2p0-----0--|-----------------------|
D|------2-----2-------------|-----0---0---------4------|-----1------1-----1---|
A|---3----------------------|--------------------------|--2------2------2-----|
E|--------------------------|--3-----------------------|----------------------|
 

e|----------------|
B|-------0--------|
G|-------------4--|
D|----1--------1--|
A|-2--------2--2--|
E|----------------|

Part 2: Repeats twice

e|--------------------|--------------------|---------------------|--------------0--|
B|--------------0-----|---------------0----|----------------0----|------------3----|
G|--------0-----------|---------0----------|----------0----------|-------2---------|
D|-----2-----2--------|------2-----2-------|------0------0-------|----0----0-------|
A|--------------------|---3----------------|---------------------|-----------------|
E|---0----------------|--------------------|---3-----------------|--2--------------|

Part 3: Repeat Part 1 twice then for the final part strum the chord below 
e|----------------|
B|----------------|
G|---4------------|
D|---1------------|
A|---2------------|
E|----------------|

Part 4: Cello (Repeats x amount of times)
e|---------------------------------------------------------------|
B|---------------------------------------------------------------|
G|---------------------------------------------------------------|
D|---------2----------5----------4----------0--------------------|
A|-(2)(2)-(2)-(2)(2)-(2)-(2)(2)-(2)-(2)(2)-(2)-(2)(2)---2--3-----|
E|--0--0-------0--0-------0--0-------0--0-------0--0---(0)(0)----|

e|--------------------------------------------------------------------------------|
B|--------------------------------------------------------------------------------|
G|--------------------------------------------------------------------------------|
D|---------2----------5----------4----------0------------------------2------------|
A|-(2)(2)-(2)-(2)(2)-(2)-(2)(2)-(2)-(2)(2)-(2)-(2)(2)---2--3--2------2--(2)(2)----|
E|--0--0-------0--0-------0--0-------0--0-------0--0---(0)(0)(0)---0-----0--0-----|

e|--------------------------------------------|
B|--------------------------------------------|
G|--------------------------------------------|
D|--5----------4----------0-------------------|
A|-(2)-(2)(2)-(2)-(2)(2)-(2)-(2)(2)---2--3----|
E|------0--0-------0--0-------0--0---(0)(0)---|

Once Upon A Time chords – Frank Sinatra

 A 
Once upon a time

             F#m 
A girl with moonlight in her eyes

                 A 
Put her hand in mine

                        D 
And said she loved me so

              C#m E7 
But that was once upon a time

             A 
Very long ago


 A 
Once upon a hill

           F#m 
We sat beneath a willow tree

                   A 
Counting all the stars

                        D 
And waiting for the dawn

                 C#m E7 
But that was once upon a time

                    A 
Now the tree is gone


Gdim7    C#m      Gdim7               A 
How the breeze ruffled through her hair

 Bm C#m Bm E 
How we always laughed as though tomorrow wasn't there

 Bm A Bm 
We were young and didn't have a care

 F#m Bm E 
Where did it go?



 A 
Once upon a time

             F#m C#m 
The world was sweeter than we knew

                 A 
Everything was ours

                       D 
How happy we were then

              F#m C#m 
But somehow "once upon a time"

   E A 
Never comes again


 A E7   
"Once upon a time"    

 A 
Never comes again

Alas Lord Is Upon Me Tabs by Behemoth V2

 ------------------------------------------------------------------
                BEHEMOTH - Alas, Lord Is Upon Me
------------------------------------------------------------------
Hello everyone, i'm new here (amateur), and I'm not a profesional, but 
i've do the best for this, so, i'm sorry if i  have make a 
mistake about this tab, i hope it's helping. And here we go

Guitar 1 & 2

Intro 
e|---4-4----|
b|--6-5-6-6-|
g|-------5--| Play it 8x
D|----------|
A|----------|
E|-0--------|

e|------------------------------------------------|
b|------------------------------------------------|
g|------------------------------------------------| Play it 4x
D|------------------------------------------------|
A|-2-8-8-8-2-1-1-----7-4-2-8-8-8-----2-3-2--------|
E|---------------0-0-------------0-0-------0-2-0-0|


Chorus
e|---4-4----|
b|--6-5-6-6-|
g|-------5--| Play it 12x
D|----------|
A|----------|
E|-0--------|

e|------------------------------------------------|
b|------------------------------------------------|
g|------------------------------------------------| Play it 9x
D|------------------------------------------------|
A|-2-8-8-8-2-1-1-----7-4-2-8-8-8-----2-3-2--------|
E|---------------0-0-------------0-0-------0-2-0-0|

e|---4-4----|
b|--6-5-6-6-|
g|-------5--| Play it 12x, but faster
D|----------|
A|----------|
E|-0--------|

I'm sorry if make you confused, but i do the best for this. And, thats all.....

Alas Lord Is Upon Me Tabs by Behemoth

 ------------------------------------------------------------------
                BEHEMOTH - Alas, Lord Is Upon Me
------------------------------------------------------------------
Artist: Behemoth
Title : Alas, Lord Is Upon Me
: Fermi666

Hello everyone, i'm new here (amateur), and I'm not a profesional, but 
i've do the best for this, so, i'm sorry if i  have make a 
mistake about this tab, i hope it's helping. And here we go

Guitar 1 & 2

Intro 
e|---4-4----|
b|--6-5-6-6-|
g|-------5--| Play it 8x
D|----------|
A|----------|
E|-0--------|

e|--------------------------------------------|
b|--------------------------------------------|
g|--------------------------------------------| Play it 4x
D|--------------------------------------------|
A|----2-8-8-8-2-1-1---7-4-2-8-8-8---2-3-2-----|
E|-0-0--------------0-0-----------0-0------0-2|

Chorus
e|---4-4----|
b|--6-5-6-6-|
g|-------5--| Play it 12x
D|----------|
A|----------|
E|-0--------|

e|--------------------------------------------|
b|--------------------------------------------|
g|--------------------------------------------| Play it 9x
D|--------------------------------------------|
A|----2-8-8-8-2-1-1---7-4-2-8-8-8---2-3-2-----|
E|-0-0--------------0-0-----------0-0------0-2|

e|---4-4----|
b|--6-5-6-6-|
g|-------5--| Play it 12x, but faster
D|----------|
A|----------|
E|-0--------|

I'm sorry if make you confused, but i do the best for this. And, thats all.....

It Came Upon A Midnight Clear chords – Misc Christmas V2

 C F    
It came upon the midnight clear,
 C F C 
That glorious song of old,
 C F 
From angels bending near the earth,
 C G C 
To touch their harps of gold:
 E7 Am 
"Peace on the earth, goodwill to men
 D7 G 
From heavens all gracious King!"
 C E7 F G 
The world in solemn stillness lay
 C G C 
To hear the angels sing.

Still through the cloven skies they come,
With peaceful wings unfurled;
And still their heavenly music floats
O'er all the weary world:
Above its sad and lowly plains
They bend on hovering wing,
And ever o'er its Babel sounds
The blessed angels sing.

O ye beneath life's crushing load,
Whose forms are bending low,
Who toil along the climbing way
With painful steps and slow;
Look now, for glad and golden hours
Come swiftly on the wing;
Oh rest beside the weary road
And hear the angels sing.

Once Upon A Time chords – Tony Bennett

 Once Upon A Time

Words & Music by Lee Adams & Charles Strouse
Recorded by Tony Bennett, 1962; From the musical "All-American"

 A AM7 A6 AM7 F#m 
Once upon a time     a girl with moonlight in her eyes

 DM7 A AM7 D A D DM7 Bm7 
Put her hand in mine      and said she loved me so;

      E7 F#m D E7 A AM7 Bm7 -5    E7 
But that was once upon a time,    very long ago.


 A AM7 A6 AM7 F#m 
Once upon a hill     we sat beneath a willow tree

 DM7 A AM7 D A D DM7 Bm7 
Counting all the stars    and waiting for the dawn —

      E7 F#m D Bm7 -5   E7 A AM7 A6 AM7 
But that was once upon a time   —   now the tree is gone.



Bridge:

 Bm7 -5  E7 AM7 A6 Bm7 -5    E7 AM7 A6 
How  the breeze    ruffled through her hair;

 G#m C#7 F#m B7 E7 
How we always laughed as though tomorrow wasn't there.

 D9 A Bm7 -5    E7 A AM7 
We were young and didn't have a care  —  

 F#m B7 Bm7 -5   E7 
Where     did it go?


 A AM7 A6 AM7 F#m 
Once upon a time     the world was sweeter than we knew,

 DM7 A AM7 D A D DM7 Bm7 
Ev'rything was ours  —  how happy we were then!

       E7 F#m DM7 Bm7 
But somehow once upon a time

 Bm7 -5   E7 D9 A F#m D9 BbM7 A 
Never comes a - gain.

A New Beginning Tabs by Upon This Dawning

 Upon This Dawning - A New Beginning
 To Keep Us Safe
Year: 2012

Tuning: Drop B
All parts and all guitars.


 ADVER





Intro Chord
C#|---|
G#|---|
E-|---|
B-|---|
F#|-0-|
B-|-1-|

00:27
C#|----------------|
G#|----------------|
E-|----------------|
B-|----------------|
F#|-3-1------------|
B-|--0--4-3-1-0-12-|


C#|-------------|
G#|-------------|
E-|-------------|
B-|-------------|
F#|-3-1---------|
B-|--0--4-3-1-3-|

00:38
C#|--------------------|
G#|--------------------|
E-|--------------------|
B-|--------------------|
F#|--------------------|
B-|-000000000-12p0-3p0-|



00:54 G1
Natural Harmonic Low
C#|-----|
G#|-----|
E-|-----|
B-|-----|
F#|-(3)-|
B-|-----|

00:54 G2
Natural Harmonic High
C#|-----|
G#|-----|
E-|-----|
B-|-----|
F#|-(8)-|
B-|-----|


00:55
C#|----------------------------------------------------------------------------------------|
G#|----------------------------------------------------------------------------------------|
E-|----------------------------------------------------------------------------------------|
B-|-0000-0000-000000-0000-0000-000000-----------0000-0000-000000-0000-0000-000000-000------|
F#|-0000-0000-000000-0000-0000-000000-3--1------0000-0000-000000-0000-0000-000000-000------|
B-|-0000-0000-000000-0000-0000-000000---0-4-3-1-0000-0000-000000-0000-0000-000000-000-0000~|
                                                                                  


Chorus
C#|-17---17---------20-----17p18p17--17-------20~--17---------------------|
G#|---18---18--18-----18-----------18--181818----18--18-17--17--17--17-18-|
E-|-----19---19--19-----19--------------------------------19--19--19------|
B-|-----------------------------------------------------------------------|
F#|-----------------------------------------------------------------------|
B-|-----------------------------------------------------------------------|


Chorus Power Chords
C#|-------|
G#|-------|
E-|-----3-|
B-|-0-3-3-|
F#|-0-3-1-|
B-|-0-3---|



Chris Motionless Breakdown
G1
C#|--------------------------------------------------------------|
G#|--------------------------------------------------------------|
E-|--------------------------------------------------------------|
B-|-0-------------0---------------0-------------0--------------0-|
F#|-0-(3)---------0-(3)-----------0-(3)---------0-(3)----------0-|
B-|-0----00-4-3-1-0-----00-1p0-12-0----00-4-3-1-0----00-12p0-1-0-|

G2
C#|--------------------------------------------------------------|
G#|--------------------------------------------------------------|
E-|--------------------------------------------------------------|
B-|-0-------------0---------------0-------------0--------------0-|
F#|-0-(8)---------0-(8)-----------0-(8)---------0-(8)----------0-|
B-|-0----00-4-3-1-0-----00-1p0-12-0----00-4-3-1-0----00-12p0-1-0-|