Tag: us

For Unto Us Open The Eyes Of My Heart chords – Paul Baloche

 Key = F
Capo TO (D) 
BMP = 102
CCLI # 7045163 & 2298355

For Unto Us A Child Is Born:

 D Dsus4 D G A 
For unto us a child is born, a Son is given, a Son is given.
 D Dsus4 D G A 
For unto us a child is born, a Son is given, a Son is given,
         G/B A/C# 
the Messiah, oh to see Him...

Open The Eyes Of My Heart:

                A Bm7 
...to see Him high and lifted up,
   G A 
shining in the light of Your glory.
                          Bm7 
Pour out Your power and love
            Em7 A 
as we sing holy, holy, holy.

[1.] to For Unto Us A Child Is Born
[2.] Open The Eyes Of My Heart:

          A Bm7 
You are high and lifted up,
   G A 
shining in the light of Your glory.
                           Bm7 
Pour out Your power and love
             Em7 A 
as we sing holy, holy, holy,
 G Em7 
holy, holy, holy, holy, holy, holy
 Bm7 Asus4 
holy, holy, holy, holy, holy, holy.

Mid section:
 D Dsus4 D 
For unto us a child is born.
 G A 
Holy, holy, holy.

|  D Dsus4  |  D  ||

Us Mustard Company chords – Robert Pollard

 -----------------------------------------------------------------------------
                                          Artist - Robert Pollard
                                         *************************
                                        Song - U.S. Mustard Company 
                                       *****************************
                                    Album - From a Compound Eye (2006)
                                   ************************************
                                            - Ayreon77
                                          **********************
-----------------------------------------------------------------------------
Tuning = Standard


INTRO - Picking Pattern Riff 1
******                                    ?????????not sure on this one note sounds out??????
   E A 
e|---------|---------|---------|---------|---------|---------|---------|---------|
B|-----7---|-----7---|-----7---|-----7---|-----9---|-----9---|-----9---|-----9---|
G|---9---9-|---9---9-|---9---9-|---9---9-|---9---9-|---9---9-|---9---9-|---9---9-|
D|-9-------|-9-------|-9-------|-9-------|-7-------|-7-------|-7-------|-7-------|
A|---------|---------|---------|---------|---------|---------|---------|---------|
E|---------|---------|---------|---------|---------|---------|---------|---------|X2


-------------------------------
VERSE 1 - Picking Pattern Riff 1
********
 E 
Far too many pieces make the puzzle absurd
 A 
All of it competes when you carry the word
 E 
In this situation where you're pressed and annoyed
 A 
Headed for a climax you wish to avoid

    C#m D A 
e|---------|---------0-------|
B|---------|-------0---0---0-|
G|---------|-----2-------2---|
D|---------|---2-------------|
A|---------|-----------------|
E|---------|-----------------|


-------------------------------
VERSE 2 - Picking Pattern Riff 1
********
 E 
If you never think about changing your view
 A 
Then happily believe what i'm saying to you
 E 
If you may consider there is work to be done
 A 
Readily accept I can turn you on

    C#m D A 
e|---------|---------0-------|
B|---------|-------0---0---0-|
G|---------|-----2-------2---|
D|---------|---2-------------|
A|---------|-----------------|
E|---------|-----------------|



Picking Pattern Riff 2
   E B 
e|---------|---------|---------|---------|
B|---0---0-|---0---0-|---0---0-|---0---0-|
G|-9---9---|-8---8---|-6---6---|-4---4---|
D|---------|---------|---------|---------|
A|---------|---------|---------|---------|
E|---------|---------|---------|---------|


-------------------------------
CHORUS - Picking Pattern Riff 2
*******
 E A 
Contain yourself
 E B A E 
Make yourself feel like it used to be
 E B A 
Throw away your charts of progress
       E A E 
Even though     you might need them
        A E 
Though they'll not be there
        D 
You'll think you need them


-------------------------------
Picking Pattern Riff 3 - E B A E

not sure this is right, anyone comes up with a better way I will add it.
e|-----0---|-----0---|-----0---|-----0---|
B|---0---0-|---0---0-|---0---0-|---0---0-|
G|-9-------|-8-------|-6-------|-4-------|Repeat and fade out...........
D|---------|---------|---------|---------|
A|---------|---------|---------|---------|
E|---------|---------|---------|---------|

 E B A E 
Contain yourself



ENJOY...........

Us Tabs – Regina Spektor V3

 -------------------------------------------------------------------------------
                             US - Regina Spektor
-------------------------------------------------------------------------------
LOVE. THIS. SONG. 
Basically, I've done the chords for this, and the tab is something of a variation. 

I play this on the piano and it sounds almost the same 
Only difference is you can't get a guitar sound on a piano... :(

Tuning: EADGBe (Capo on ONE)

!!!
The ~ symbol just means to ensure the note is HELD ON throughout the bar - it's the bass note.

Intro (Either do this twice or once and a half if you're doing the music video version)
  C                  F/C               C                F/C
e -----------------|-----------------|-----------------|-----------------|
B -----------------|-----------------|-----------------|-----------------|
G -----0---0---0---|-----2---2---2---|-----0---0---0---|-----2---2---2---|
D ---2---2---2---2-|---3---3---3---3-|---2---2---2---2-|---3---3---3---3-|
A -3~~~~~~~~~~~~~~~|-3~~~~~~~~~~~3~~~|-3~~~~~~~~~~~~~~~|-3~~~~~~~~~~~~~~~|
E -----------------|-----------------|-----------------|-----------------|

This bit's almost the same as another one, but it changes later on!

Verse
   They made a         sta-tue of us
  C                  F/C               C                F/C
e -----------------|-----------------|-----------------|-----------------|
B -----------------|-----------------|-----------------|-----------------|
G -----0---0---0---|-----2---2---2---|-----0---0---0---|-----2---2---2---|
D ---2---2---2---2-|---3---3---3---3-|---2---2---2---2-|---3---3---3---3-|
A -3~~~~~~~~~~~~~~~|-3~~~~~~~~~~~~~~~|-3~~~~~~~~~~~~~~~|-3~~~~~~~~~~~~~~~|
E -----------------|-----------------|-----------------|-----------------|

    And put it      on a mountain top
  C                  F/C               C                F/C
e -----------------|-----------------|-----------------|-----------------|
B -----------------|-----------------|-----------------|-----------------|
G -----0---0---0---|-----2---2---2---|-----0---0---0---|-----2---2---2---|
D ---2---2---2---2-|---3---3---3---3-|---2---2---2---2-|---3---3---3---3-|
A -3~~~~~~~~~~~~~~~|-3~~~~~~~~~~~~~~~|-3~~~~~~~~~~~~~~~|-3~~~~~~~~~~~~~~~|
E -----------------|-----------------|-----------------|-----------------|

  Now tourists     come and stare at us                          Blow
  C                  F/C               C                F/C
e -----------------|-----------------|-----------------|-----------------|
B -----------------|-----------------|-----------------|-----------------|
G -----0---0---0---|-----2---2---2---|-----0---0---0---|-----2---2---2---|
D ---2---2---2---2-|---3---3---3---3-|---2---2---2---2-|---3---3---3---3-|
A -3~~~~~~~~~~~~~~~|-3~~~~~~~~~~~~~~~|-3~~~~~~~~~~~~~~~|-3~~~~~~~~~~~~~~~|
E -----------------|-----------------|-----------------|-----------------|

bubbles with their gum          take photographs have fun,    have fun
  C                  F/C               C                F/C
e -----------------|-----------------|-----------------|-----------------|
B -----------------|-----------------|-----------------|-----------------|
G -----0---0---0---|-----2---2---2---|-----0---0---0---|-----2---2---2---|
D ---2---2---2---2-|---3---3---3---3-|---2---2---2---2-|---3---3---3---3-|
A -3~~~~~~~~~~~~~~~|-3~~~~~~~~~~~~~~~|-3~~~~~~~~~~~~~~~|-3~~~~~~~~~~~~~~~|
E -----------------|-----------------|-----------------|-----------------|

(Instrumental)
  C                  F/C               C                F/C
e -----------------|-----------------|-----------------|-----------------|
B -----------------|-----------------|-----------------|-----------------|
G -----0---0---0---|-----2---2---2---|-----0---0---0---|-----2---2---2---|
D ---2---2---2---2-|---3---3---3---3-|---2---2---2---2-|---3---3---3---3-|
A -3~~~~~~~~~~~~~~~|-3~~~~~~~~~~~3~3~|-3~~~~~~~~~~~~~~~|-3~~~~~~~~~~~3~~~|
E -----------------|-----------------|-----

We Got Used To Us Tabs – Riverside

 -------------------------------------------------------------------------------
                          We Got Used To Us - Riverside
-------------------------------------------------------------------------------
: David Benítez
 debml700

Tuning: EADGBe

Heys guys! Pretty sad song, which means that it is also insanely beautiful...
Its a pretty simple song, only a few leads, so it'll be a quickie to learn.
Have fun, and don't forget to rate!


Careful with the slides here, listen for the dynamics
e|------------------------------13h15--p13-------15--15----13----------|
B|-\8---(\6)----8\6---------------------------15--------------15-------|
G|-------------------7\5-----------------------------------------12----|
D|---------------------------------------------------------------------|
A|---------------------------------------------------------------------|
E|---------------------------------------------------------------------|

Rhythm ain't exact here...
e|------------------------------------------------------------------------------|
B|-8--8-8-8-8/10-10-10-10/11-11-11-11--11-11-11-11/13--13-13-13-13/15-15-15\----|
G|------------------------------------------------------------------------------|
D|-5--5-5-5-5/7--7--7--7-/8--8--8--8---8--8--8--8-/10--10-10-10-10/12-12-12\----|
A|------------------------------------------------------------------------------|
E|------------------------------------------------------------------------------|

e|-----------------------------------------|
B|-8h10----8-10-10b11-r10p8------8----\----|
G|---------------------------10------------|
D|-----------------------------------------|
A|-----------------------------------------|
E|-----------------------------------------|

Solo
e|------------------------------------------------------------------------------------------|
B|-16-15-13--13h15----------------------13------------13-15----13--------------11/13--11----|
G|------------------15--12----12-14-15------14---------------------12\9---------------------|
D|----------------------------------------------15-------------------------10---------------|
A|------------------------------------------------------------------------------------------|
E|------------------------------------------------------------------------------------------|

e|------------------------------------/13----13--/15------------------------|
B|-/15----15b16r15--------------------------------------13b14r13-11----\----|
G|------------------12--12/15--\12------------------------------------------|
D|--------------------------------------------------------------------------|
A|--------------------------------------------------------------------------|
E|--------------------------------------------------------------------------|

************************************

| /   slide up
| \   slide down
| h   hammer-on
| p   pull-off
| ~   vibrato
| +   harmonic
| x   Mute note
| b   Bend
| pb  Pre-bend
| br  Bend release
| pbr Pre-bend release
| brb Bend release bend

************************************

Take Us Home chords by Alan Doyle V2

 -Standard Tuning-

-Capo 3-

The chords are played as follows:
 G :        320003
 C :        x32033
 Em :       x22033


Verse 1:
 G 
This is my hand  Take it now it’s yours to keep

These are my eyes  Look into them and you’ll see
                         C Em 
How a rainbow needs the rain  Or it will never shine again
                   G D 
It’s the same for you and me


Verse 2:
 G 
These are my footsteps  Falling surely next to yours

This is the moment  That we’ve been waiting for
                       C Em 
It’s our story now to tell  Raise the curtain  ring the bell
                 G D 
And open up the doors


Chorus:
 Em C G Em C D 
Hey  altogether we will be  We’re forever you and me
 Em C G Em C D 
Hey  the sun will show us where to go  Love will give us heart and soul
             G 
And take us home


Verse 3:
 G 
These are my arms  Come to them when you’re cold

This is my shoulder  Rest your head and dream of home
                                     C Em 
For there’ll nights and there’ll be days  It seems a long  long ways away
                   G D 
But we’ll make it now I know


Chorus:
 Em C G Em C D 
Hey  altogether we will be  We’re forever you and me
 Em C G Em C D 
Hey  the sun will show us where to go  Love will give us heart and soul
             G 
And take us home


Verse 4:
 G 
This is my song  It’s the only one I know

This is my heart  Take it with you when you go
                           C Em 
I wanna thank you for the show  No one wants to dance alone
              G D 
I’ll see you down the road


Chorus:
 Em C G Em C D 
Hey  altogether we will be  We’re forever you and me
 Em C G Em C D 
Hey  the sun will show us where to go  Love will give us heart and soul
             G 
And take us home

How Bout Us chords – Champaign

 How Bout Us - Champaign 1981
Written by Dana Walden
R&B soul


intro: A, Dm

 A Dm A 
Ooh, short and sweet
                         Dm A 
No sense in draggin' on past our needs
                             Dm A 
Let's don't keep it hangin' on
                              Dm 
If the fire's out, we should both be gone

 A Bm 
Some people are made for each other
                                      Dm A 
Some people can love one another for life, how 'bout us
                                   Bm 
Some people can hold it together
                                  Dm A Dm A Dm A 
Last through all kind of weather, tell me can we

                       Dm A  
Now don't get me wrong  ( What you sayin' to me baby )
                              Dm A 
'Cause I'm not tryin' now to end it all    ( let's does something new )
                            Dm A 
It's just that I have seen    ( what have you see ? )
                         Dm A 
Too many lover's hearts lose their dreams ( we won't lose it !)

 A Bm 
Some people are made for each other
                                      Dm A 
Some people can love one another for life, how 'bout us
                                   Bm 
Some people can hold it together
                                   Dm A Dm A Dm A 
Last through all kind  of weather, tell me can we

                              Dm 
How 'bout us How 'bout us, baby
                              A 
How 'bout us How 'bout us, baby
                              Dm 
How 'bout us How 'bout us, baby

 F#m C#m Em F C 
How we gonna make it girl, how we gonna drift and drift and drift together
                                    Dm 
Some people are made for each other
                                       Fm C 
Some people can love one another for life, how 'bout us

                                  Dm 
Some people can hold it together
                                 Fm C 
La..............................st , How bout us  
                                    Dm 
Some people are made for each other
                                       Fm C 
Some people can love one another for life, how 'bout us (Repeat fade out)

=====/ Morenciel Chords & Lyrics /=====

"How about' us in the Chords and Lyrics Video:


Lets Talk About Us chords – Jerry Lee Lewis

 Let's Talk About Us - Jerry Lee Lewis
 Del Bradley   CAPO none ideally or on 3 works for me
The G & G7 chords after "Come on" and "Let's talk" are single emphasised downstrums
____________________________________________________________________
Please don't forget to rate and comment, 
Your feedback would be much appreciated, Thank you :)
____________________________________________________________________


INTRO (Boogie Woogie style rhythm)    

 D D D D D D7 D7 
We talked about the birdies
 D7 D D 
That fly up in the trees
 D D7 D7 
We talked about the moon
 D7 D D 
And the stars we couldn't see
 D D7 D7 
But you keep on pretending
 D7 D D 
You don't know what's wrong with me

      G G G   -stop
Come on 
            G7 G7  - stop
let's talk 
       D D D 
about us

 D D7 D7 
We talked about the good times
      D D7 D7 
That made us laugh and sigh
 D7 D D 
We talked about the bad times
 D D7 D7 
That brought tears to our eyes
      D D7 
Now, I think it's about time
     D D7 D7 
For you to realize

      G G G   -stop
Come on 
            G7 G7  - stop
let's talk 
       D D D 
about us

 D G7 G D7 D 
Oo-Oo-Oo, Dear I swear I'll love you, 'til the very end
 G G7 
But I don't plan on stickin' around
 G7 G Em 
If it's just to be your frie-nd

 Em D D D7 D7 D7 
We've talked, and talked, and talked, and talked
     D D7 D7 
But there's been nothin said
     D7 D 
The things that you've been talking 'bout
      D7 D D 
Just don't stick to my head
 D D7 D7 
Sometimes little girl, I think
      D D7 D7 
Your heart is filled with lead

      G G G   -stop
Come on 
            G7 G7  - stop
let's talk 
       D D D 
about us


 D G7 G D7 D 
Oo-Oo-Oo, Dear I swear I'll love you honey, 'til the very end
 G G7 
But I don't plan on stickin' around
 G G G7 G7 
If it's just to be your friend

 G7 D D D7 D7 
We've talked, and talked, and talked, and talked
     D D7 
But there's been nothin said
     D7 D 
The things that you've been talking 'bout
      D7 D D 
Just don't stick to my head
 D D7 D7 
Sometimes little girl, I think
      D D7 D7 
Your heart is filled with lead


      G G G   -stop
Come on 
            G7 G7  - stop
let's talk 
       D D D 
about us


      G G G   -stop
Come on 
            G7 <sp

He Has Come For Us God Rest Ye Merry Gentlemen chords – Meredith Andrews

 Verse I:
     Am Am 
God rest ye merry gentlemen let nothing you dismay
   Am Am       
Remember Christ our Savior was born on Christmas day
    Dm C Am G 
To save us all from Satan's power when we were gone astray
    C Dm Am G 
Oh tidings of comfort and joy, comfort and joy
    C Dm Am 
Oh tidings of comfort and joy


Chorus:
        F C G 
He has come for us, this Jesus
          F C G 
He's the hope for all mankind
        F C G 
He has come for us, the Messiah
 F G C 
Born to give us life


Verse II:
      Am 
From God our heavenly Father a blessed angel came
     Am 
And unto certain shepherds brought tidings of the same
     Dm C Am G 
How that in Bethleham was born the Son of God by name
    C Dm Am G 
Oh tidings of comfort and joy, comfort and joy
    C Dm Am 
Oh tidings of comfort and joy


Chorus:


Bridge:
         F G Am C F G Am C  
All the angels sing Halleluja, Jesus Christ is born
         F G Am C F G Am C 
All the children sing Halleluja, He is Christ the Lord


Chorus:
        F C G 
He has come for us, this Jesus
          F C G 
He's the hope for all mankind
        F C G 
He has come for us, the Messiah
 F G Am F G C 
Born to give us life (He is born to give us life)

Happens To Us All Otherwise chords – Bound Stems

 D Bm A  x2

     D Bm 
In all my life, in all my years,
       A 
We'd take it till it hurts then wait until it heals
                 D Bm 
We'd watch the night dry up and take a lonely ride
                 A 
Oh, we're not going into work if you're right

      D 
Oh, take my place
     Bm 
A stand up kid
          A 
I was thinking all about it
 
Cause I knew where we'd been
       D 
He shifted in his chair
          Bm 
With a sheer delight
              A 
It took me weeks for these words
                        G 
Weeks to admit I was right

                D A 
And there's a lot of everything

Or oh, till it grows
                  G 
Or oh, till it grows
                D A 
And there's a lot of everything

  Bm D 
March till you fall
       Em A 
And listen to it fade away
  Bm D 
Fumble at the door
              Em F#m 
While the telephone rings, the telephone rings

     Bm D 
And has it been a week yet? Fine.
 Em A 
Linger in the revelry
      Bm D 
It happens to us all otherwise
 Em F#m 
Turn while we run but act like you mean it

 D 
She says we've got one foot out the door
 G 
She says we've got one foot out the door
 D G 
She says we've got one foot out the door

     D Bm 
In all my life, all my years,
      A 
We waited till its over and waited till we're here
             D Bm 
We see the car drive up and the kids playing nice
     A 
Be sure to rest up for the night

      D Bm 
And all my love and all my tears,
 A 
Yes, you made a difference

And yes, you made it clear
                 D 
We watched the sky light up
                 Bm 
And shake from side to side
              A 
It took me years for these words
                        G 
Years to admit I was right

            D A 
And so it goes for everything

And oh, so it goes
            G 
Oh, so it goes
            D A 
And so it goes for everything

  Bm D 
March till you fall
       Em A 
And listen to it fade away
  Bm D 
Fumble at the door
              Em F#m 
While the telephone rings, the telephone rings

     Bm D 
And has it been a week yet? Fine.
 Em A 
Linger in the revelry
      Bm D 
It happens to us all otherwise
 Em A 
Turn while we run but act like you keep it
       D 
One place

 D 
We said she's got one foot out the door
 G 
We said she's got one foot out the door
 D G 
We said she's got one foot out the door

 D 
We said she's got one foot out the door
 G 
We said she's got one foot out the door
 D G 
We said she's got one foot out the door

 D D 
We said she's got one foot out the door
 G 
We said she's got one foot out the door
 D A 
We said she's got one foot out the door

You Never Give Up On Us chords – Beth Croft

 =========================================================================================================
Song: You Never Give Up On Us
Artist: Beth Croft 
 We Are The Free
=========================================================================================================
Intro:
 C G  

Chorus:
 C 
You never give up on us
 G Am 
You never let go or turn away
 Am 
We're holding on to you
     F 
Our God is strong, Our God is good[x2]

Instrumental:  C F C F C F 

Verse 1:
              C 
Your the God of salvation
                G 
We call on your name, You came to redeem us
 F 
Carry our shame
               Am 
We stumble and fall down
                 G 
We turn from your ways
                  C 
But in you we find mercy
                  F 
We're held in your grace
             Am G 
Held in your grace 

Chorus:
 C 
You never give up on us
 G Am 
You never let go or turn away
 Am 
We're holding on to you
     F 
Our God is strong, Our God is good 

Instrumental:  C F C F 

Verse 2:
               C 
Your the God of compassion
                    G 
The friend of the least, 
                 Am 
Not coming to be served
 F 
Your serve those in need
                 Am 
We surrender our burdens
                 G 
Our lives at Your cross
                       C F 
We trust in the Saviour the God who is Love
           Am G 
Our God is Love

Chorus:
 C 
You never give up on us
 G Am 
You never let go or turn away
 Am 
We're holding on to you
     F 
Our God is strong, Our God is good[x2] 

Instrmental:  C F C F C F 

Chorus:
 C 
You never give up on us
 G Am 
You never let go or turn away
 Am 
We're holding on to you
     F 
Our God is strong, Our God is good[x2]

Outro:
 C 
=========================================================================================================
Enjoy and God Bless-x-
=========================================================================================================

The Last Of Us Main Theme intro Tabs – Misc Soundtrack

 -------------------------------------------------------------------------------
                           The Last Of Us Main Theme - Naughty Dog Company
-------------------------------------------------------------------------------
:Andrei 
al.trandafir

Tuning: E A D G B e


e|-----0-----0------0------0------0------0-------0-------0-|
B|---0-----0------0------0------0------0-------0-------0---|
G|12-----9-----14-----11-----12-----12------12------12-----|
D|---------------------------------------------------------|
A|---------------------------------------------------------|
E|---------------------------------------------------------|


e|-----0-----0-----0-----0------0------0-------0------0----|
B|---0-----0-----0-----0------0------0-------0------0------|
G|12-----9----14----11-----16-----16------16-----16--------|
D|---------------------------------------------------------|
A|---------------------------------------------------------|
E|---------------------------------------------------------|



e|-----0------0------0------0------0------0------0-------0-|
B|---0------0------0------0------0------0------0-------0---|
G|12-----9-----14-----11-----12-----12------12-----12------|
D|---------------------------------------------------------|
A|---------------------------------------------------------|
E|---------------------------------------------------------|


e|-------0------0------0----0------0-------0----0~---------|
B|-----0------0------0----0------0------0-----0~-----------|
G|--15-----14-----12----9------9-----9------9~-------------|
D|---------------------------------------------------------|
A|---------------------------------------------------------|
E|---------------------------------------------------------|



************************************

| /   slide up
| \   slide down
| h   hammer-on
| p   pull-off
| ~   vibrato
| +   harmonic
| x   Mute note
| b   Bend
| pb  Pre-bend
| br  Bend release
| pbr Pre-bend release
| brb Bend release bend

************************************

Make Us Stronger chords – Emily Hearn

 Make Us Stronger by Emily Hearn
Key: B 
No Capo

VERSE 1
 F# 
Lately it feels like rain when we're together
 B 
It's dark in her the sun a'int eve gone down
 F#  
We both know we're bound for stormy weather
 B  
I'm scared to death we might not make it out

PRE-CHORUS 1
 G#  
So tell me what you need
 B 
I'd do anything to start again
 G#  
Go on let it out 
 C#  
And let me in

CHORUS
 F#  
Oh wait just a minute please
 D#  
Don't turn away from me
 B C# 
Stay just a little while longer
 F#  
Baby, we are too far into this
 D# 
How can we settle it?
 B C# 
Please believe in you and me again
 B C# 
It will only make us stronger

VERSE 2
 F#  
Baby, we're both lonely here together
 B 
We've been sleeping back to back at night
 F#  
and why are we pretending like we haven't lost the will to fight
 B D# B 
We've gotta make the choice to go or stay

PRE-CHORUS 2
 G# 
But I don't wanna leave 
 B 
I'd do anything to work it out
 G#  
This is what we need
 C# 
Don't give up now

CHORUS
 F#  
Oh wait just a minute please
 D#  
Don't turn away from me
 B C# 
Stay just a little while longer
 F#  
Baby, we are too far into this
 D# 
How can we settle it?
 B C# 
Please believe in you and me again
 B C# 
It will only make us stronger

BRIDGE
 B D# C# 
What's it gonna be? Is it worth saving you and me?

CHORUS(reprise)
 F# 
Oh wait, don't turn away from me 
 D# C# 
Stay just a little while longer
                           F# 
Cause baby we are too far into this
 B 
I know we can settle it
 D# C# 
If we believe in you and me again

CHORUS
 F#  
Oh wait just a minute please
 D#  
Don't turn away from me
 B C# 
Stay just a little while longer
 F#  
Baby, we are too far into this
 D# 
How can we settle it?
 B C# 
Please believe in you and me again
 B C# 
It will only make us stronger
 B C# 
It will only make us stronger
 B C# 
It will only make us stronger
 B C# 
It will only make us stronger

Have fun! 
-Jules

Fall Asleep chords – Us V2

 Fall Asleep 
Us (Us the Duo) 
Us (2012) 

Here is an acoustic version of this song from their YouTube channel:



Tuning: EADGCe (you just tune up the b string a half step to c) 

*********************************
        C  - x32000 
        F  - x87000 
       Am  - 5x5500 
      C/B  - x2000x 
        G  - x109000
   F (bar) - 13320x
   C (bar) - 8101090x
 C/B (bar) - 7101090x
*********************************


Intro 
 F C  X2 


Verse 1 
 F C  
  I'm always worrying through-out the day 
       F C  
These troubles and these problem never go away 
            F Am  
And at the end of the day I just want to lay my head 
        F C C/B G  
On the pillow next to yours in-side our bed 


Chorus 
                F  
I just want to fall asleep 
                C 
I just want to fall asleep 
                F 
I just want to fall asleep 
             C C/B  
Inside your arms 
                F 
I just want to fall asleep 
                C 
I just want to fall asleep 
                F 
I just want to fall asleep 
             C C/B F  
Inside your arms 



Verse 2 
 F C 
  I'm always worrying when I'm awake 
 F C 
Life is kinda hard with all this give and take 
           F Am 
When it's too much to bare and I'm all-alone 
   F G 
I think about lying next to you when I get home 


Chorus (barred)
                F  
I just want to fall asleep 
                C 
I just want to fall asleep 
                F 
I just want to fall asleep 
             C C/B  
Inside your arms 
                F 
I just want to fall asleep 
                C 
I just want to fall asleep 
                F 
I just want to fall asleep 
                C C/B F G  
Inside your arms 


Bridge 1
 F 
    We're just lovers lovers 
 C  
    Under the covers covers 
 F C C/B  
    We got each other each other now 
 F 
    We're just lovers lovers 
 C  
    Under the covers covers 
 F C C/B  
    We got each other each other now 


Bridge 2 (barred)
    F C F C C /B 
Woah   yeah  woah  oh yeah 
    F C F C C /B   F 
Woah   yeah  woah  oh yeah 


Chorus 
                F 
I just want to fall asleep 
                C 
I just want to fall asleep 
                F 
I just want to fall asleep 
             C 
Inside your arms 
             C  
Inside your arms 
             C  
Inside your arms 
             C 
Inside your arms

Us Constitution chords – Gina Barkey

 
      U.S. CONSTITUTION 
(words & music by GINA BARKEY)

   D 
1)I've got a friend on automation
 Em 
She is from the new generation
 D 
It's to bad she doesn't know her nation
 C 
The promises are here, you know 
 Em 
Why can't we all just share and grow;
 
CHORUS: 
 C 
U.S. Constitution
 Em 
Lets all make our new resolutions
 G 
Take your old ties

and leave them all behind you
 D 
If I look around, will I find? 
 C Em 
Ohhhhhh, Yeh---------!
    C 
2) What do you think about modern music?
 Em 
Some will say it's so amusing 
 D 
There's good and bad in everything
 C 
It can make you shout or sing. 

CHORUS:
 C 
U.S. Constitution
 Em 
Lets all make our new resolutions
 G  
Take your old ties 

and leave them all behind you 
 D 
If I look around, will I find you?
 
CHORUS: 
 C 
U.S. Constitution 
 Em 
Lets all make our new resolutions 
 G 
Take your old ties
 
and leave them all behind you 
 D 
If I look around, will I find you.
 C Em 
Ohhhhh, Yeh-------!

 
--INSTRUMENTAL-- C,Em,G,D - C,Em,G,D 

   C 
3)I've got a friend on automation 
 Em 
She is from the new generation
 D  
It's to bad she doesn't know her nation 
 C 
The promises are here, you know 
     Em 
Why can't we all just share and grow. 

CHORUS: 
 C 
U.S. Constitution
 Em  
Lets all make our new resolutions 
 G 
Take your old ties 

and leave them all behind you 
 D 
If I look around, will I find you?
 
CHORUS: 
 C 
U.S. Constitution
 Em  
Lets all make our new resolutions 
 G 
Take your old ties 

and leave them all behind you 
 D 
If I look around, will I find you? 

CHORUS: 
 C 
U.S. Constitution 
 Em 
Lets all make our new resolutions
 G  
Take your old ties 

and leave them all behind you 
 D 
If I look around, will I find you? 
 C Em 
Oooooh, Yeh-----! Oo.


All words & music 
written and performed by GINA BARKEY (c)2014
 
All Rights Reserved

Deliver Us chords – Mike Mcclure

 Deliver Us
Mike McClure

 C F C 
Pick up your troubles, pick up your blues
 C G C 
Take ‘em on down to the river
 C F C 
In the name of the Father and the Son
 C G C 
In the name of the one that delivers

(Chorus)

 F C        
Deliver us from the wicked one
                                 G   
Let the water wash away all our sins
 F C                  
Lift up our souls on a rock that don’t roll
                             G C    
Scatter our troubles in the four winds

 C F C  
Lay down your heartache, lay down your loss
 C G C 
Lay them down at the feet of Jesus
 C F C   
When we have feelings that we are not worthy
 C G C  
Just like the sparrow he sees us

 (Chorus x2)

Us Godless Teenagers chords – The Veils

 Intro
 G  3x

 G Em  ( Em7 )
Nowhere to call home
 G Em  ( Em7 )
Talking on our phones
 G Em  ( Em7 )
Always arriving stoned

 
 C G 
Us Godless teenagers
 C G 
Us Godless teenagers

 
 G Em  ( Em7 )
We're off to fly a kite
 G Em  ( Em7 )
And stay up 'til it gets light
 G Em  ( Em7 )
All good for nothing but not quite

 
 C G 
Us Godless teenagers
 C G 
Us Godless teenagers


 G Em  ( Em7 )
We've nowhere left to disappear
 G Em  ( Em7 )
There's nowhere left to go around here
 G Em  ( Em7 )
And so we hold each other dear


 C G 
Us Godless teenagers
 C G 
Us Godless teenagers



Instrumental Ending:
 G#m Gm Fm D G G  

E------------------|------------------|--------------|--------------|
B---11--11--11--11-|---10--10--10--10-|---8--8--8--8-|---7--7--7--7-|
G-12--12--12--12---|-11--11--11--11---|-9--9--9--9---|-7--7--7--7---|
D------------------|------------------|--------------|--------------|
A------------------|------------------|--------------|--------------|
E------------------|------------------|--------------|--------------|

E--------------|---------------|
B--------------|---------------|
G--------------|---------------|
D---0--0--0--0-|---0--0--0--2-0|
A--------------|---------------|
E-3--3--3--3---|-3--3--3--3---3|

I usually only make chords and I know these tabs are not perfect but
they will help you understand what I meant with the chords in the
instrumental ending. Just try it with the song and you'll see it fits.

Enjoy :)

A Time For Us chords – Johnny Mathis V4

 I laboured many hours to find chord arrangement for ease of playing.
I hope you agree, it's a beautiful song. I welcome critique. 


Intro:   Am G F Em Am Am Am7 Em C Am Am7 F 
A time   for   us,  some day there'll be,
       Em Dm C Dm7 Am Dm Am Dm7 Am7 Am 
When chains, are  torn, by   courage born, of  a  love   that's   free.

   Em A7 F Dm G Dm7 Dm Em 
A time, when dreams, so, long de..nied, can flour  ish,
    Am G F Am G F Em Am 
As we  unveil the love we now must hide.


   C G Dm Am A# F Em Am 
A time, for us, at last, to see, a life, worthwhile, for you, and me.
 Am Am7 Em Am G Em F 
And  with  our love, through tears and thorns,
     Em Dm C Dm Am Dm Dm7 Dm Dm7 Am 
We will  en dure, as we   pass surely through ev ery  storm.


    Em A7 F Dm G Em F Dm Em 
A time, for us, some day there'll be a new world,
    Am G F Em Am G F Em Am 
A world of shin ing hope for you and me..


  C G Dm Am A# F Em Am 
........................................................ for you and me..


 Am Am7 Em Am G Em F 
And with our love, through tears and thorns
     Em Dm C Dm Am Dm Dm7 Dm Dm7 Am 
We will endure, as we  pass surely through ev ery  storm.
    Em A7 F Dm G Em F Dm Em 
A time for us, some day there'll be a new world,

    Am G F Em Am G F Em Am G F Em Am 
A world of shi  ning hope for you and me
    Am G F Em Am G F Em Am G F Em Am 
A world of shi  ning hope for you and me

In The End Tabs by Us

 VERSE 1
(x2)
"One thing, I don't know why...."
e|-----------------------------------------------------------------|
B|------8-------8-------8-------8-------7-------7-------7-------7--|
G|----0-------0-------0-------0-------0-------0-------0-------0----|
D|-----------------------------------------------------------------|
A|-7-------7-------7-------7-------5-------5-------5-------5-------|
E|-----------------------------------------------------------------|
                                                                                 
e|-----------------------------------------------------------------|
B|------5-------5-------5-------5-------7-------7-------7-------7--|
G|----0-------0-------0-------0-------0-------0-------0-------0----|
D|-----------------------------------------------------------------|
A|-3-------3-------3-------3-------5-------5-------6-------6-------|
E|-----------------------------------------------------------------|

(3rd time)
"Didn't look out below"
e|------------------------------------------------------------------|
B|------8-------8-------8-------8-----------------------------------|
G|----0-------0-------0-------0---------8-------8-------8-------8---|
D|------------------------------------9-------9-------9-------9-----|
A|-7-------7-------7-------7----------------------------------------|
E|---------------------------------7-------7-------7-------7--------|

"Trying ot hold on..."
e|------------------------------------------------------------------|
B|------------------------------------------------------------------|
G|------9-------9--------9--------9--------11-------11--------------|
D|---10------10-------10-------10-------12-------12-----------------|
A|------------------------------------------------------------------|
E|-8-------8--------8--------8-------10-------10--------10~~--------|

"I kept everything inside..."
e|-----------------------------------------------------------------|
B|------8-------8-------8-------8-------7--------------------------|
G|----0-------0-------0-------0-------0----------------------------|
D|-----------------------------------------------------------------|
A|-7-------7-------7-------7-------5--------5\---------------------|
E|-----------------------------------------------------------------|

"What it meant to me..."
e|-----------------------------------------------------------------|
B|------5-------5-------5-------5-------7-------7------------------|
G|----0-------0-------0-------0-------0-------0--------------------|
D|-----------------------------------------------------------------|
A|-3-------3-------3-------3-------5-------5-------5~~-------------|
E|-----------------------------------------------------------------|


CHORUS
(x2)
"I tried so hard..."
e|-------0--------0--------0--------0--------0---------0---------0---------0-|
B|-----0--------0--------0--------3--------3---------3---------3---------3---|
G|---0--------0--------0--------0--------0---------0---------0---------0-----|
D|---------------------------------------------------------------------------|
A|---------------------------------------------------------------------------|
E|-0--------0--------0--------2--------3---------3---------3---------3-------|


e|-------2--------2--------2--------2-|------0---------0---------0---------0-|
B|-----3--------3--------3--------3---|----3---------3---------3---------3---|
G|---2--------2--------2--------2-----|--0---------0---------0---------0-----|
D|-0--------0--------0--------0-------|--------------------------------------|
A|------------------------------------|3---------3---------3---------3-------|
E|------------------------------------|--------------------------------------|

        (2nd time ending)
        e|-------0-|
        B|-----3---|
        G|---0-----|     (7x)Let last note ring
        D|---------|
        A|-3-------|
        E|---------|


Verse

Great In Us chords – Praise And Worship

 INTRO: [ D  -  G ]
[ D  -  G  -  D  -  Bm  -  G ]

Verse 1:
 D G 
We see a new horizon
 D Bm G 
Courage in the distance
 D G 
Our hearts can feel You rising
 D Bm A 
Stirring hope within us

PreChorus:
 G A 
You're calling out for us
 Bm A 
We hear Your voice cut through the darkness
 G A 
You’re calling out for us
 G 
As we cry out for love

Chorus:
 D G 
Greater than our sin
 Bm G 
A greater love begins
 D G 
Through the power of your cross
 Bm G 
Your love is great in us
 D G 
You've taken all our shame
 Bm G 
You washed it all away
 D G 
Through the power of Your cross
 Bm G  [ D  - First time]
Your love is great in us

VERSE 2:
Your love spans the distance
All our sin forgotten
You're calling us to follow
And stirring hope within us

Interlude: [ Bm  -  D  -  G  -  A ]

Bridge:
 Bm 
Greater than my hurt
 D G 
Greater than my pain
 A D 
Greater than my hopes
 A 
And all my dreams
 F#m Bm 
Greater than my past
 D G 
Greater than my doubt
 A D 
Greater than my life
 A 
Your love for me

Outro:
 D 
Greater love in us
 G 
Greater love in us
 Bm D G 
Greater love in us