Tag: v10

Pangarap Lang Kita Tabs – Parokya Ni Edgar V10

 By GuitarTutee

Standard Tuning:
Capo on 1st Fret
Intro:
e|--------------------------------0---------------------------|
B|-----------3---0------------3-------------------------------|
G|----0-------0--------0-------0------------------------------|
D|---2-2--------------2-2-------------------------------------|
A|--3-------5--------3-------5--------------------------------|
E|---------------0----------------0---------------------------|

e|------------------------------------------------------------|
B|-----------3------------------------------------------------|
G|----0-------0----0-0-0-2----0------0-----0------------------|
D|---2-2-------4--------0----2-2------4-----------------------|
A|--3-------5---------------3-------5-------------------------|
E|----------------3-2-0--------------------3------------------|

Verse:
e|------------------------------------------------------------|
B|-----------3---0--------------------------------------------|
G|----0-------0--0------------0------0-----0------------------|
D|---2-2---------2--(3x)-----2-2------4-----------------------|
A|--3-------5----2----------3-------5-------------------------|
E|---------------0------------------------3-------------------|

e|------------------------------------------------------------|
B|-----------3---0--------------------------------------------|
G|----0-------0--0--------------------------------------------|
D|---2-2---------2--(2x)--------------------------------------|
A|--3-------5----2--------------------------------------------|
E|---------------0--------------------------------------------|

e|------------------------------------------------------------|
B|-----------3------------------------------------------------|
G|----0-------0----0-0-0-2----0------0-----0------------------|
D|---2-2-------4--------0----2-2------4-----------------------|
A|--3-------5---------------3-------5-------------------------|
E|----------------3-2-0--------------------3------------------|

Chorus:
e|------------------------------------------------------------|
B|--0----3-----0---------0-----3--------------0---3--2-----0--|
G|--0----0-----0---------0-----0-----0-0-0-2--0---0--0-----2--|
D|--2----4-----2--(2x)---2-----4----------0---2---4--0-----2--|
A|--3----5-----2---------3-----5--------------3---5--------0--|
E|-------------0--------------------3-2-0------------3--------|

Life On Mars chords – David Bowie V10

 Life On Mars? - David Bowie



verse
 F F/E Cm/Eb 
It's a god-awful small affair
        D Gm 
To the girl with the mousy hair
         Gm/F C7/E 
But her mummy is yelling "No"
         C7 F 
And her daddy has told her to go
         F/E Cm/Eb 
But her friend is nowhere to be seen
         D Gm 
Now she walks through her sunken dream
         Gm/F C7 
To the seat with the clearest view 
           C7 Ab 
And she's hooked to the silver screen


pre chorus
         C7+/E Fm 
But the film is a saddening bore
           Ab Db 
For she's lived it ten times or more
           Aaug Bbm 
She could spit in the eyes of fools
         Db7 
As they ask her to focus on


chorus
 Bb Eb               
Sailors fighting in the dance hall
 Gm7 
  Oh man!
 F#aug F 
Look at those cavemen go
 Fm Cm7 
   It's the freakiest show
 Ebm7 Bb  
   Take a look at the Lawman
 Eb            
Beating up the wrong guy
 Gm7 F#aug F 
   Oh man! Wonder if he'll ever know
 Fm Cm7 
   He's in the best selling show
 Ebm7 Gm F#aug Bb/F C7/E 
   Is there life on Ma - - - - - - - - - -rs?


verse 
 F F/E Cm/Eb 
   It's on Amerika's tortured brow
             D Gm 
That Mickey Mouse has grown up a cow
         Gm/F C7/E 
Now the workers have struck for fame
        C7 F 
'Cause Lennon's on sale again
         F/E Cm/Eb 
See the mice in their million hordes
      D Gm 
From Ibiza to the Norfolk Broads
      Gm/F C7/E 
Rule Britannia is out of bounds
       C7 Ab 
To my mother, my dog, and clowns


pre chorus
         C7+/E Fm 
But the film is a saddening bore
           Ab Db 
'Cause I wrote it ten times or more
      Aaug Bbm 
It's about to be writ again
      Db           
As I ask you to focus on


chorus
 Bb Eb               
Sailors fighting in the dance hall
 Gm7 
  Oh man!
 F#aug F 
Look at those cavemen go
 Fm Cm7 
   It's the freakiest show
 Ebm7 Bb  
   Take a look at the Lawman
 Eb            
Beating up the wrong guy
 Gm7 F#aug F 
   Oh man! Wonder if he'll ever know
 Fm Cm7 
   He's in the best selling show
 Ebm7 Gm F#aug Bb/F C7/E 
   Is there life on Ma - - - - - - - - - -rs?

Have You Ever Seen The Rain chords – Creedence Clearwater Revival V10

 Intro =  Am F C G C G 

Verse 1
 C 
Someone told me long ago 
 C 
There's a calm before the storm
   G C G 
I know it's been coming for some time
 C  
When it's over so they say it'll rain a sunny day  
   G C  
I know shinin' down like water 

Chorus
 F G C C/B Am Am/G 
I wanna know have you ever seen the rain
 F G C C/B Am Am/G  
I wanna know have you ever seen the rain
 F G C G 
Comin' down on a sunny day
 
Verse 2
 C 
Yesterday and days before
 C  
Sun is cold and rain is hard 
   G C G 
I know been that way for all my time
 C 
'Til forever on it goes 
 C 
Through the circle fast and slow 
   G C  
I know it can't stop I wonder

Chorus
 F G C C/B Am Am/G 
I wanna know have you ever seen the rain
 F G C C/B Am Am/G  
I wanna know have you ever seen the rain
 F G C    
Comin' down on a sunny day

Chorus
 F G C C/B Am Am/G 
I wanna know have you ever seen the rain
 F G C C/B Am Am/G  
I wanna know have you ever seen the rain
 F G C G C 
Comin' down on a sunny day



Irreplaceable chords by Beyonce Knowles V10

 ---------------------------------------------------------------------------
                Irreplaceable – Beyonce
---------------------------------------------------------------------------
: maguri
Tuning: Standard

Beyonce 
Irreplaceable (2006)
(Shaffer Smith / Mikkel S. Eriksen / Erik Hermansen / Espen Lind / 
Amund Bjørklund / Beyoncé (harmonies))

From: "B’Day"

Want to know what this tab sounds like? I recorded a quick demo of 
INTRO/VERSE/BRIDGE/CHORUS. Listen to it here: https://db.tt/7GrdeMlz

---------------------------------------------------------------------------

capo: 3rd fret
play: G
key: Bb

---------------------------------------------------------------------------
CHORDS

          E-A-D-G-B-e
G         3-x-0-0-3-x  (interlude and final chorus: 3-x-0-0-3-3)
D         x-x-0-2-3-x  (interlude and final chorus: x-x-0-2-3-2)
Csus2/A   x-0-5-5-3-x  (interlude and final chorus: x-0-5-5-3-3)
Asus4/C   x-3-2-2-3-x

Cmaj7add9 x-3-2-4-3-x
G/B       x-2-0-0-3-x
Cadd9     x-3-2-0-3-x  (interlude and final chorus: x-3-2-0-3-3)
Bm        x-2-4-4-3-x

Dsus2     x-x-0-2-3-0
Dsus4     x-x-0-2-3-3

D/F#      2-x-0-2-3-2
Em7       0-2-0-0-0-0

---------------------------------------------------------------------------

INTRO
 G                            |  D  | 
  To the left, to the left
 Csus2/A                     |  Asus4/C  |
  To the left, to the left ...  mmmh


VERSE
 G 
  To the left, to the left
 D 
Everything you own in the box to the left
 Csus2/A 
In the closet, that's my stuff, yes
 Asus4/C D 
If I bought it, please don't touch

 G 
 And keep talkin' that mess, that's fine
     D 
But could you walk and talk at the same time?
      Csus2/A 
And, it's my name that's on that Jag,
      Asus4/C D 
So remove your bags, let me call you a cab


BRIDGE
 Cmaj7  add9                                G/B 
 Standing in the front yard, telling me how I'm such a fool
             Cadd9 Bm Csus2/A 
Talkin' bout how I'll never ever find a man like you
     D 
You got me twisted


CHORUS
 G D 
 You must not know 'bout me, you must not know 'bout me
               Csus2/A 
I could have another you in a minute,
              Cadd9 
Matter fact, he'll be here in a minute

 G D 
 You must not know 'bout me, you must not know 'bout me
             Csus2/A 
I can have another you by tomorrow
              Cm 
So don't you ever for a second get to thinking 
                  G 
You’re irreplaceable


VERSE
 G 
 So go ahead and get gone
 D 
Call up that chick and see if she's home
 Csus2/A 
Oops! I bet you thought that I didn't know
 Asus4/C 
What did you think I was putting you out for?
 G 
  Because you was untrue
 D 
Rollin’ her round in the car that I bought you
 Csus2/A  
  Baby, drop them keys
 Asus4/C D 
 Hurry up before your taxi leaves


BRIDGE
 Cmaj7  add9                               G/B 
 Standing in the front yard, telling me how I'm such a fool
             Cadd9 Bm Csus2/A 
Talkin' bout how I'll never ever find a man like you
     D 
You got me twisted


CHORUS
 G D 
 You must not know 'bout me, you must not know 'bout me
               Csus2/A 
I could have another you in a minute,
              Cadd9 
Matter fact, he'll be here in a minute

 G D 
 You must not know 'bout me, you must not know 'bout me
             Csus2/A 
I can have anothe

Lua chords – Bright Eyes V10

 Intro:  D | D | G | G 

Verse 1:
 D G 
I know that it is freezing but I think we have to walk
       D G 
Keep waving at the taxis, they keep turning their lights off
      Em A 
But Julie knows a party at some actor's west-side loft
              Em G Em A D 
Supplies are endless in the evening, by the morning, they'll be gone.

      D G 
When everthing is lonely, I can be my own best friend
          D G 
I get a coffee and the paper, have my own conversations
          Em A 
With the sidewalk and the pidgeons and my window reflection
            Em G Em A D 
The mask I polish in the evening, by the morning looks like shit.


Chorus 1:
        G D 
And I know you have a heavy heart, I can feel it when we kiss.
    G D E7 
So many men stronger than me have thrown their backs out, trying to lift... it.
     G Bm Em D G 
But me, I'm not a gamble, you can count on me to split,
            Em G Em A D 
The love I sell you in the evening, by the morning, won't exist.


Verse 2:
                D G 
You're looking skinny like a model with your eyes all painted black,
           D G 
Just keep going to the bathroom always say you'll be right back.
      Em A 
Well it takes one to know one kid, I think you've got it bad.
               Em G Em A D 
But what's so easy in the evening, by the morning's such a drag.

            D G 
I've got a flask inside my pocket, we can share it on the train.
            D G 
And if you promise to stay conscious, I will try and do the same.
               Em A 
Yeah we might die from medication but we sure killed all the pain,
          Em G Em A D 
What was normal in the evening, by the morning, seems insane.


Chorus 2:
         G D 
And I'm not sure what the trouble was, that started all of this.
       G D E7 
The reasons all have run away, but the feeling never did.
             G Bm Em D G 
It's... not something I would recommend but it is one way to live,
                Em G Em A D 
'Cause what is simple in the moonlight, by the morning, never is.


             Em G Em Bm 
Yeah it was simple in the moonlight, now it's so complicated.
           Em G Em G 
It was so simple in the moonlight, so simple in the moonlight, 
    Em G                ...  D 
so simple in the moonlight.....

Concerning Hobbits Tabs by Howard Shore V10

 Concerning Hobbit theme from the Hobbit

I Hope you will enjoy my version =)

e|------------------------------------|-------------------------------|
B|----------------------3-2-----------|-------------------------------|
G|-------2----------2-4-----2---------|-------2----------2-4-2--------|
D|-0-2-4---4-2-0--4-----------4-5-4-2-|-0-2-4---4-2-0--4-------4-2-0--|
A|------------------------------------|-------------------------------|
E|------------------------------------|-------------------------------|

e|-----2-2-2-2-5----------------------------2-2-5-2-----------------2-|
B|-3-5----------5-3-5-----2-2-2-3-------3-5---------5-3-5-2-3-2---2-3-|
G|--------------------2-4-----------0-2-------------------------4---2-|
D|--------------------------------4---------------------------------0-|
A|--------------------------------------------------------------------|
E|--------------------------------------------------------------------|

Pangarap Lang Kita Tabs by Parokya Ni Edgar V10

 -------------------------------------------------------------------------------
                            PANGARAP LANG KITA - Parokya ni Edgar
-------------------------------------------------------------------------------
:Randy Andal Ante
barakotayo

Tuning: Standard
 Instrumental version
 Acoustic guitar


 Capo on 3rd fret


   Intro short version
e|---------------------------------------------------------------------0-0-0-------|
B|--------------------------------------0--4h--0-------------2--4h--2--0-0-0-------|
D|---2---4-------------4---2--4~---2--4-------------4--2--4------------0-0-0-------|
A|-3---5-------------5---3-------3--5-------------5--3-----------------2-2-2-------|
E|---------------------------------------------------------------------3-3-3-------|

  verse 1
e|------------------------------------------------------------------------------------|
B|---------3--0---0-0----------0--3--0---3------------3--0--5p--0--3p--0--------------|
G|------0-------2---0--------0---------2---2--0--0--3-------------------0-0-0---------|
D|--2--2------------2---2--2------------------2-------------------------0-0-0---------|
A|-3----------------3--3----------------------3-------------------------2-2-2---------|
E|----------------------------------------------------------------------3-3-3---------|
                                             di tulad sa yo   imposible

e|-------------------------------------------------------------------------------|
B|-----------0-3-0-----------------0-3-------------------------------------------|
G|----0--2h---------0-0-0-0----0-2------4--2--0--2~~-----------------------------|
D|--2---------------2-2-2-2---2--------------------------------------------------|
A|-3----------------3-3-3-3--3---------------------------------------------------|
E|-------------------------------------------------------------------------------|
                               akoy dukhaaaaaaaaaa
e|------------------------------------------------------------------------------|
B|--------0--5h-------------0--0--5h--0--3h--0----------------------------------|
G|---0-2--------0--4--0--2------------------------------------------------------|
D|--2---------------------------------------------------------------------------|
A|-3----------------------------------------------------------------------------|
E|------------------------------------------------------------------------------|
  sa tv                          mangyayareee


   Chorus
e|---------------------------------------------------------------------------|
B|-0--0--0--0--0--3--3--3---3--0--0--0--0--0---0--0--0--0--0--3--3--3--3--3--|
G|-0--0--0--0--0--2--2--2---2--0--0--0--0--0---0--0--0--0--0--2--2--2--2--2--|
D|-2--2--2--2--2--0--0--0---0--0--0--0--0--2---2--0--0--2--2--0--0--0--0--0--|
A|-3--3--3--3--3--0--0--0---0--2--2--2--2--3---3--2--2--3--3--0--0--0--0--0--|
E|-0--0--0--0--0--0--0--0---0--3--3--3--3------3--3--------------------------|
                           WALA AKONG MAGAGAWA       TANGGAP     KO    TO
e|-----------------------------------------------------------------------------------|
B|-0--0--0--0--0--0--0--0--0---------------------------------------------------------|
G|-0--0--0--0--0--0--0--0-0----0--0-2--2--4H--2--0-----------------------------------|
D|-0--0--0--0--2--2--2--0--0---------------------------------------------------------|
A|-2--2--2--2--3--3--3--0--0---------------------------------------------------------|
E|-3--3--3--3-----------0--0---------------------------------------------------------|
     AKING   SINTAAAAAA        PANGARAP LANG KITA AH..

   play the intro, then verse again



************************************

| /   slide up
| \   slide down
| h   hammer-on
| p   pull-off
| ~   vibrato
| +   harmonic
| x   Mute note
| b   Bend
| pb  Pre-bend
| br  Bend release
| pbr Pre-bend release
| brb Bend rele

Love Is On The Radio chords – Mcfly V10

 Capo on 2nd fret
         C F C          
I was alone and my stomach was twisted,
    Dm Am G C 
But I can get up now, the dark clouds have lifted
 F C F C 
Back in the old life, before you existed,
 Dm Am G C 
I couldn't see right, my windows were misted

 F 
Said one word, made me feel much better,
 G 
Starts with L and it's got four letters

 F C G 
Things are looking up, looking up (hey!)
          C G F 
There's magic everywhere you go
 C G 
Strangers stop to say hello (hello, hello, hello)
 F C E 
So turn it up, turn it up (hey!)
    Am G F 
As loud as you can make it go
        G C F C 
'Cause love is on the radio

 F C F C 
Now that I've found you, my heart's beating faster,
 Dm Am G C 
We could be happy forever and after
 F C F C 
We could be married, like Mrs and Mr,
 Dm Am G C 
We'll have a son and we'll give him a sister

 F 
Just one thing holding us together,
 G 
A four letter word and it lasts forever

 F C G 
Things are looking up, looking up (hey!)
          C G F 
There's magic everywhere you go
 C G 
Strangers stop to say hello (hello, hello, hello)
 F C E 
So turn it up, turn it up (hey!)
    Am G F 
As loud as you can make it go
        G F  
'Cause love is on the radio
       
  

 C F 
Love is on the radio
 C Dm 
Love is on the radio (turn it up, turn it up)
 Am G 
Love is on the radio (turn it up, turn it up)
 C F 
Love is on the radio (turn it up, turn it up)
 C F 
Love is on the radio (turn it up, turn it up)
 C Dm 
Love is on the radio (turn it up, turn it up)
 Am G 
Love is on the radio
 C  
Love is on the radio


 F 
Funny one thing led to another,
 G 
You came along, filled my days with colour
 F 
And its been an everlasting summer,
 G 
Since we found each other

 F C G 
Things are looking up, looking up (hey!)
          C G F 
There's magic everywhere you go
 C G 
Strangers stop to say hello (hello, hello, hello)
 F C E 
So turn it up, turn it up (hey!)
    Am G F 
As loud as you can make it go
                           G 
Play until your speakers blow,
                            F 
Listen 'til your ears explode,
        G C    
'Cause love is on the radio

Blessed Be Your Name chords – Matt Redman V10

 E B C#m A 
 Blessed be You name  in the land that is plenitful
            E B A 
Where Your streams of abundance flow  Blessed be Your name
 E B C#m A 
 And blessed be Your name  when I'm found in the desert place
          E B A 
Though I walk through the wilderness  Blessed be Your name


 E 
 Every blessing You pour out I'll  turn back to praise 
 E B C#m A 
 And when the darkness closes in, Lord  Still I will say

(Chorus)              
                   E B 
   Blessed be the name of the Lord
                    C#m A 
   Blessed be Your name
                   E B 
   Blessed be Your name of the Lord
                    C#m A 
   Blessed be Your glorious name

(Verse 2)
 E B C#m A   
 Blessed be Your name  when the sun's shining down on me
          E B A  
When the world's "all as it should be"  Blessed be Your name
 E B C#m A 
 And blessed be Your name  on the road marked with suffering 
                E B A 
Though there's pain in the offering  Blessed be Your name

(Bridge)
     E B 
You give and take away
     C#m A 
You give and take away
     E B 
My heart will choose to say
       C#m A 
Lord, blessed be Your name

Summertime chords – George Gershwin V10

 "Summertime" - Music by George Gershwin, lyrics by DuBose Heyward. 
From the 1935 opera, "Porgy and Bess."



 Am 
   Summertime, 
 E7 Am 
   And the livin' is easy
 Dm 
   Fish are jumpin'
 F E7 
   And the cotton is high


 Am 
   Oh, Your daddy's rich
 E7 Am 
   And your mamma's good lookin'
 F 
   So hush little baby
 E7 Am 
   Don't you cry


 Am 
   One of these mornings
 E7 Am 
   You're going to rise up singing
 Dm 
   Then you'll spread your wings
 F E7 
   And you'll take to the sky


 Am 
   But until that morning
 E7 Am 
   There's a'nothing can harm you
 F E7 Am 
   With your daddy and mammy standing by



 Am 
   Summertime, 
 E7 Am 
   And the livin' is easy
 Dm 
   Fish are jumpin'
 F E7 
   And the cotton is high


 Am 
   Oh, Your daddy's rich
 E7 Am 
   And your mamma's good lookin'
 F 
   So hush little baby
 E7 Am 
   Don't you cry

Silent Night Tabs by Misc Christmas V10

 ---------------------------------------------------------------------------
                Silent Night (jazz)
---------------------------------------------------------------------------
: maguri
Tuning: Standard

Silent Night
(Franz Xaver Gruber/Joseph Mohr) 
English lyrics: John Freeman Young)

Here’s a jazzy arrangement that I like to play. Enjoy!

---------------------------------------------------------------------------
CHORDS / SPECIAL VOICINGS

          E-A-D-G-B-e
Amaj7     x-0-2-1-2-0
Bm9       x-2-0-2-2-2
A9sus4    x-0-5-4-3-x
F#dim     x-x-4-5-4-5
Dmaj7     x-x-0-2-2-2
Dmaj/C#   x-4-x-2-2-2
Fdim      x-x-3-4-3-4
B9        x-2-1-2-2(2)
E7#9      0-2-3-1-0-x
Amaj13    5-x-6-6-7(7)

---------------------------------------------------------------------------

INTRO

  1 + 2 + 3 +  1 + 2 + 3 +  1 + 2 + 3 +  1 + 2 + 3 +
e|0---2---0---|1-----------|0---2---0---|3-------1---|
B|2-----------|2-----------|2-----------|1-------1---|
G|1-----------|2-----------|1-----------|----2-------|
D|------------|0-----------|------------|------------|
A|0-----------|------------|0-----------|1-----------|
E|------------|------------|------------|------------|  


VERSE
  Amaj7        Bm9          C#m7         F#7
  1 + 2 + 3 +  1 + 2 + 3 +  1 + 2 + 3 +  1 + 2 + 3 +
e|0-----2-0---|------------|------------|------------|
B|2-----------|2-------0---|5-----7--5--|2-----------|
G|1-----------|2-----------|4-----------|3-------3---|
D|----2-------|0---0-------|6---6-------|2---2-------|
A|0-----------|2-----------|4-----------|------------|
E|------------|------------|------------|2-----------|  

  Bm           E7           A          A9sus4    A7
  1 + 2 + 3 +  1 + 2 + 3 +  1 + 2 + 3 +  1 + 2 + 3 +
e|------------|------------|------------|------------|
B|3-------3---|0-----------|2-------2---|3-------2---|
G|2-----------|1-------1---|2-------2---|4-------2---|
D|4---4-------|----0-------|2---2-------|----5---5---|
A|2-----------|------------|0-----------|0-------0---|
E|------------|0-----------|------------|------------|  

  Dmaj7        F#dim        Amaj7        A7
  1 + 2 + 3 +  1 + 2 + 3 +  1 + 2 + 3 +  1 + 2 + 3 +
e|2-------2---|5-----4-----|0-----2-0---|------------|
B|2-------2---|4-------7---|2-----------|2---0---2---|
G|2---2-------|5-----------|1-----------|0-------0---|
D|0-----------|4-----------|----2-------|2-------2---|
A|------------|------------|0-----------|0-------0---|
E|------------|------------|------------|------------|  

  Dmaj7   /C#  Bm7          Amaj7
  1 + 2 + 3 +  1 + 2 + 3 +  1 + 2 + 3 +  1 + 2 + 3 +
e|2-------2---|5-----4-2---|0-----2-0---|0-----------|
B|2-------2---|3-------3---|2-----------|2-----------|
G|2---2-------|2-------2---|1-----------|1-------2---|
D|0-----------|----4-------|----2-------|----2-------|
A|--------4---|2-------2---|0-----------|0-----------|
E|------------|------------|------------|------------|  

  Bm7          E7      Fdim F#m7         B9
  1 + 2 + 3 +  1 + 2 + 3 +  1 + 2 + 3 +  1 + 2 + 3 +
e|------------|------------|------------|------------|
B|3-------3---|3-----0-----|------------|2-----------|
G|2-------2---|1--------1--|2-----------|2-------2---|
D|4---4-------|2---2----0--|2-------2---|1---1-------|
A|2-----------|------------|----4-------|2-----------|
E|------------|0--------1--|2-----------|------------|  
                                        |TURNAROUND
  A       F#7  Bm7    E7b9  A            Bm7     E7
  1 + 2 + 3 +  1 + 2 + 3 +  1 + 2 + 3 +  1 + 2 + 3 +
e|------------|------------|--------0---|------------|
B|2-------2---|5-----3-0---|----2-------|3-------0---|
G|2-------3---|2-------1---|2-----------|2-------1---|
D|2---2---2---|4---4---3---|2-----------|4-------0---|
A|0-----------|2-----------|0-----------|2-----------|
E|--------2---|--------0---|------------|--------0---|  


 |CODA
  A            Dm7        Amaj13
  1 + 2 + 3 +  1 + 2 + 3 +

96 Quite Bitter Beings Tabs by Cky V10

 Song:96 Quite Bitter Beings
Volume 1
Artist:CKY
Genre:Alternative Metal
Year:1999
Tuning:Half-Step Down (Eb,Ab,Db,Gb,Bb,Eb)

Intro x4
Eb---------------------------------------------------|
Bb---------------------------------------------------|
Gb-----4----------4-5-4------------5/7-5--4-2---4----|
Db-2-5---2~~--2-5-------5-4-5----5------------5---5--|
Ab-----------------------------3---------------------|
Eb---------------------------------------------------|

Pre-Verse 1 x2
Eb-----------------|
Bb-----------------|
Gb----------6-6-6--|
Db-2-2-2--2-6-6-6--|
Ab-2-2-2--2-4-4-4--|
Eb-0-0-0--0-4-4-4--|

Verse 1 x4
Eb-----------------|
Bb-----------------|
Gb----------6-6-6--|
Db-2-2-2--2-6-6-6--|
Ab-2-2-2--2-4-4-4--|
Eb-0-0-0--0-4-4-4--|

Then:
*Pre-Verse 2 x4
*Verse 2 x6

Bridge 1 Pt.1 x8
Eb-00000--00000--|
Bb-00000--00000--|
Gb-00000--00000--|
Db-99999--77777--|
Ab-77777--55555--|
Eb-00000--00000--|

Bridge 1 Pt.2 x2
Eb------------------------|
Bb------------------------|
Gb-----------7------------|
Db-7-7-7--XX-5-7-7/9-9-9--|
Ab-5-5-5--XX---5-5/7-7-7--|
Eb------------------------|

Eb--------------------------|
Bb--------------------------|
Gb-------------7------------|
Db---5-5-5--XX-5-7-7/9-9-9--|
Ab-2-3-3-3--XX---5-5/7-7-7--|
Eb-0------------------------|

Then:
*Bridge 1 Pt.1 x8
*Bridge 1 Pt.2 x2

Outro x8
Eb---------------------------------------------------|
Bb---------------------------------------------------|
Gb-----4----------4-5-4------------5/7-5--4-2---4----|
Db-2-5---2~~--2-5-------5-4-5----5------------5---5--|
Ab-----------------------------3---------------------|
Eb---------------------------------------------------|

Song Order:
*Intro x4
*Pre-Verse 1 x2
*Verse 1 x4
*Pre-Verse 2 x4
*Verse 2 x6
*Bridge 1 Pt.1 x8
*Bridge 1 Pt.2 x2
*Bridge 1 Pt.1 x8
*Bridge 1 Pt.2 x2
*Outro x8

Key:
/=Slide Up
~=Let Ring
X=Mute The Strings

*Here Is A Link If You Wanna Play Along:


*Don't Forget To Rate And Comment If You
Liked The Tab, And Comment Any Corrections,
I Welcome Corrections.

Goodbye My Lover chords – James Blunt V10

 James Blunt - Goodbye My Lover (from Back to Bedlam 2005)


 C G 
Did I disappoint you or let you down?
 Am F 
Should I be feeling guilty or let the judges frown?
 C G 
'Cause I saw the end before we'd begun,
         Am F 
Yes I saw you were blinded and I knew I had won.
       C G 
So I took what's mine by eternal right.
 Am F 
Took your soul out into the night.
 C G 
It may be over but it won't stop there,
        Am F 
I am here for you if you'd only care.
       C                                             
You touched my heart you touched my soul.
 G 
You changed my life and all my goals.
 Am 
And love is blind and that I knew when,
 F 
My heart was blinded by you.
 C 
I've kissed your lips and held your hand.
 G 
Shared your dreams and shared your bed.
 Am 
I know you well, I know your smell.
 F C 
I've been addicted to you.

[x2]
 C 
Goodbye my lover.
 G 
Goodbye my friend.
 Am 
You have been the one.
 F 
You have been the one for me.

 C G 
I am a dreamer and when I wake,
 Am F 
You can't break my spirit - it's my dreams you take.
 C G 
And as you move on, remember me,
 Am F 
Remember us and all we used to be
 C        
I've seen you cry, I've seen you smile.
 G 
I've watched you sleeping for a while.
 Am 
I'd be the father of your child.
 F 
I'd spend a lifetime with you.
 C 
I know your fears and you know mine.
 G 
We've had our doubts but now we're fine,
 Am 
And I love you, I swear that's true.
 F 
I cannot live without you.


[x2]
 C 
Goodbye my lover.
 G 
Goodbye my friend.
 Am 
You have been the one.
 F 
You have been the one for me.

 C G Am 
And I  still hold your hand in mine.
    F 
In mine when I'm asleep.
 C G Am         
And I will bare my soul in time,
                F 
When I'm kneeling at your feet.

[x2]
 C 
Goodbye my lover.
 G 
Goodbye my friend.
 Am 
You have been the one.
 F 
You have been the one for me.

 C G Am F 
I'm so hollow, baby, I'm so hollow.
 C G Am F 
I'm so, I'm so, I'm so hollow.
 C G Am F 
I'm so hollow, baby, I'm so hollow.
 C G Am F C G Am F C 
I'm so, I'm so, I'm so hollow.



First tab hope u like it

Give Me Love chords – Ed Sheeran V10

 -------------------------------------------------------------------------------
                             Give me Love - Ed Sheeran
-------------------------------------------------------------------------------
: Camell (Kevin Åkesson)
Tuning: Standard


Capo 4th

Quite easy with this Capo. Without the capo the chords are Bbm, F#, C#. Just move 
"Transpose" to the left up 4 steps!



Intro:  F#m D A A       x2



All tabs are relative to the Capo, If you really want one for without I'm sure 
there is some here. but ask me in comments and maybe I'll do one! :) Thanks and bye! :D
                                                        e|-------------------|
B|-------------------|
G|-------------------|
D|-------------------|
A|------0------------|
E|-----------0----1--|


The next part goes for the intro / verse!
   F#m D A A 
e|-2----2----2----2----2----2----2----2----0----0----0----0----0----0----0----0-----|
B|-2----2----2----2----3----3----3----3----2----2----2----2----2----2----2----2-----|
G|-3----3----3----3----2----2----2----2----2----2----2----2----2----2----2----2-----|
D|-4----4----4----4----0----0----0----0----2----2----2----2----2----2----2----2-----|
A|-4----4----4----4----x----x----x----x----0----0----0----0----0----0----0----0-----|
E|-2----2----2----2----x----x----x----x----x----x----x----x----x----x----x------0-1-| ... Repeat




Verse:
 F#m D A A   
Give me love, like her
 F#m D A A   
Cos lately I've been waking up alone
 F#m D A A   
The pain splatter tear drops on my shirt
 F#m D A A 
I told you I'd let them go

Pre-Chorus:
               Bm 
And that I'll fight my corner
         D 
Maybe tonight I'll call you
          A E 
After my blood, turns into alcohol
 Bm D 
No, I just wanna hold you

Chorus:
 A Bm D 
Give a little time to me (We'll burn this out)
 A Bm D 
We'll play hide and seek (To turn this around)
 A Bm D 
And all I want is the taste that your lips allow

 F#m D A 
My my my my give me love
 F#m D A 
My my my my give me love
 F#m D A 
My my my my give me love
 F#m D A 
My my my my give me love

Verse:

 F#m D A A   
Give me love like never before
 F#m D A A   
Cos lately I've been craving more
 F#m D A A   
And It's been a while but I still feel the same
 F#m D A A 
Maybe I should let you go

Pre-Chorus
               Bm 
You know I'll fight my corner
            D 
And That tonight I'll call you
          A E 
After my blood, is drowning in alcohol
 Bm D 
No,I just wanna hold you

Chorus

 A Bm D 
Give a little time to me  (We'll burn this out)
 A Bm D 
We'll play hide and seek (To turn this around)
 A Bm D 
And all I want is the taste That your lips allow
 F#m D A 
My my my my give me love

 A Bm D 
Give a little time to me  (We'll burn this 

Hotel California chords – Eagles V10

 Hotel California is the title song from the Eagles' album of the same name and was 
released as a single in February 1977. Three months after its release, the single 
was certified Gold by the Recording Industry Association of America. The Eagles 
also won the 1977 Grammy Award for Record of the Year for "Hotel California" at 
the 20th Grammy Awards in 1978. The song is rated highly in many rock music lists 
and polls; Rolling Stone magazine ranked it number 49 on its list of "The 500 
Greatest Songs of All Time".

 Em  022000
 B7  021202
 Dsus2  000230                 *** ATTENTION CAPO on 7th FRET ***
 A9  042000                    12 String guitar it is preferable 
 C  032010                     But 6 String guitar is more than OK as well. 
 G  320003                     These are the precise same chords Don Felder                        
 Am7  002010                   used to write the music.
                   
 
*** CAPO 7th FRET ***
INTRO  Em B7 Dsus2 A9 C G Am7 B7 Em                              
On a dark desert highway,
 B7 
Cool wind in my hair
  Dsus2                                                             
Warm smell of colitas
 A9 
Rising up through the air
 C                                              
Up ahead in the distance,
 G 
I saw a shimmering light
  Am7                                       
My head grew heavy and my sight grew dim
 B7 
I had to stop for the night
 Em                              
There she stood in the doorway;
 B7 
I heard the mission bell
  Dsus2                                     
And I was thinking to myself
 A9 
This could be heaven or this could be hell
 C                                              
Then she lit up a candle,
 G 
And she showed me the way
 Am7                                                    
There were voices down the corridor;
 B7 
I thought I heard them say…
 
 
 C G 
Welcome to the Hotel California
 B7        
Such a lovely place (Such a lovely place)
 Em 
Such a lovely face
 C G 
Plenty of room at the Hotel California
 Am7    
Any time of year (Any time of year)
 B7 
You can find it here

 
 Em                              
Her mind is Tiffany-twisted,
 B7 
She got the Mercedes bends
 Dsus2                                            
She got a lot of pretty, pretty boys
 A9       
She calls friends
 C                                                    
How they dance in the courtyard,
 G 
Sweet summer sweat
 Am7 
Some dance to remember,
 B7 
Some dance to forget
 Em       
So I called up the Captain,
 B7 
"Please bring me my wine"
 Dsus2                                                                  
He said, "We haven't had that spirit here
 A9 
Since nineteen sixty nine"
 C                                                              
And still those voices
 G 
Are calling from far away,
 Am7    
Wake you up in the middle of the night
 B7 
Just to hear them say...
 

 C G 
Welcome to the Hotel California
 B7 
Such a lovely place (Such a lovely place)
 Em 
Such a lovely face
 C G 
They living' it up at the Hotel California
 Am7 
What a nice

Walang Iba chords – Ezra Band V10

 Walang iba by ezra band

intro

 G Bm Am D G Bm 
Ilang beses nang nag-away
             Am 
Hanggang sa magkasakitan
         D                 
Di na alam ang pinagmulan


 G Bm 
Pati maliliit na bagay
      Am 
Na napag-uusapan
          D 
Bigla na lang pinag-aawayan

Refrain

        Am Bm 
Ngunit kahit na ganito
     Am Bm 
Madalas na di tayo magkasundo
      Am Bm C                     D--
Ikaw lang ang gusto kong makapiling sa buong buhay ko

Chorus1:

       G Bm 
Kahit na binabato mo ako ng kung anu-ano
  Am D 
Ikaw pa rin ang gusto ko
       G Bm 
Kahit na sinasampal mo ako't sinisipa
   Am D 
Nasusugatan mo
         Am Bm C 
Ikaw pa rin, walang iba
           Am Bm C D 
Ang gusto kong makasama...
            G Bm 
Walang iba
         C D --
Walang iba...


III.
Nagsimula sa mga asaran
Hanggang sa magkainitan
Isang eksenang bangayan nanaman


Ba't ba kasi pinagpipilitan
Ang di maintindihan?
Di naman kinakailangan

(Refrain)
Chorus1

Interlude

Chorus2:
       G Bm 
Kahit na binabato mo ako ng kung anu-ano
  Am D 
Ikaw pa rin ang gusto ko
       G Bm 
Kahit na sinasampal mo ako't sinisipa
   Am D 
Nasusugatan mo
         Am Bm C 
Ikaw pa rin, walang iba
           Am Bm C 
Ang gusto kong makasama
        Am Bm C 
Wag ka nang mawawala


           G  -  Bm  -  C  -  D 
Walang iba...

Last Chord:  G

Runaway Tabs by Linkin Park V10

 Very simple song, sparse riffs.  Great heaviness, easy to play.
I noticed so many tabs that I never felt sounded right with just
plain power chords in Drop D.  This song is much heavier than it seems. 
Hope it is helpful!  I plan on tabbing the entire Hybrid Theory album 
with this level of accuracy and simplicity.  Not a hard album to play.

Quiet Intro: (this riff is also played in the final chorus after the bridge)
C#|-------------------------------------------------------------------|
G#|-------------------------------------------------------------------|
 E|--7----7--7-/10----10--10--10--------------------------------------|
 B|--7----7--7-/10----10--10--10----10----10--10-/12----12--12--xx----| x2
F#|--5----5--5-/8-----8---8---8-----8-----8---8--/10----10--10--xx----|
 B|---------------------------------8-----8---8--/10----10--10--xx----|

Heavy Intro/Chorus:
C#|-------------------------------------------------------------------|
G#|-------------------------------------------------------------------|
 E|-------------------------------------------------------------------|
 B|--0----0--0----3----3--3--3----10----10--10----12----12--12--12----| x2
F#|--0----0--0----3----3--3--3----8-----8---8-----10----10--10--10----|
 B|--0----0--0----3----3--3--3----8-----8---8-----10----10--10--10----|

Bridge: (the dots below signify palm-muting)
C#|-------------------------------------------------------------------|
G#|-------------------------------------------------------------------| 
 E|-------------------------------------------------------------------|
 B|--0----0----1----0-0----0-0----1~----------------------------------|
F#|--0----0----1----0-0----0-0----1~----------------------------------|
 B|--0----0----1----0-0----0-0----1~----------------------------------|
     .    .         . .    . .

There you go, the whole song!  Thank you for using this tab!
Hope to make more in the future!