Tag: v2

Anastasia – Music From The Motion Picture – Once Upon A December chords by Misc Soundtrack V2

[Intro]

Am E Am E


[Verse 1]

Am      E      A7      Dm
Dancing bears, painted wings
Dm       Am      Dm   E
Things I almost remember
Am    E    A7      Dm
And a song someone sings
Dm     Am     E   Am
Once upon a December


[Chorus 1]

Dm               Am
Someone holds me safe and warm
E                       Am     A7
Horses prance through a silver storm
Dm              Am
Figures dancing gracefully
 B7           E
Across my memory


[Instrumental]

Bbm  F  Bb7  Ebm
Ebm  Bbm  Ebm  F
Bbm  F  Bb7  Ebm
Ebm  Bbm  C7  F
Bbm  F  Bb7  Ebm
Ebm  Bbm  F  Bbm


[Chorus 2]

Ebm              Bbm
Someone holds me safe and warm
F                       Bbm    Bb7
Horses prance through a silver storm
Ebm             Bbm
Figures dancing gracefully
 C7           F
Across my memory


[Verse 2]

Bm   F#   B7    Em
Far away, long ago
Em      Bm        Em  F#
Glowing dim as an ember
Bm        F#    B7      Em
Things my heart used to know
Em        Bm          F#  B7
Things it yearns to remember


[Outro]

Em         Bm      B7
And a song someone sings
Em    Bm      F#  Bm
Once upon a December

Ode To Sleep chords – Twenty One Pilots V2

 ===================================================================
                 Ode To Sleep - Twenty One Pilots
===================================================================


Intro A:
 E Em E Em E Em 

Intro B/Postchorus: (When melody comes in)
 Em Em Em Em C C C  C(Bm)



Spittin': (With the E to Em switches in the Background)
 Em 
I wake up fine and dandy but then by the time I find it handy,

To rip my heart apart and start planning my crash landing,
      C 
I go up-up-up-up up to the ceiling,
                                                           Bm 
Then I feel my soul start leaving, like an old man's hair receding,
 Em 
I'm pleading please, oh please on my knees repeatedly asking,

Why it's got to be like this, is this living free,
 C 
I don't want to be the one, be the one who has the sun's blood on my hands,

I'll tell the moon, take this weapon forged in darkness,
                 Bm 
Some see a pen, I see a harpoon.

 Em Em Em Em 




Verse 2:
 G F#m  (D)   Em Am D 
           I'll stay awake, 'Cause the dark's not taking prisoners tonight.

 G F#m D Em Am D G F#m D Em 
Why am I not scared in the morning, I don't hear those voices calling,
                             Am D 
I must have kicked them out,   I must have kicked them out,
 G F#m D Em    
I swear I heard demons yelling, those crazy words they were spelling,
                        Am D Gmaj7 
They told me I was gone,   they told me I was gone.

But I'll tell them,




Chorus:
 G C Bm 
Why won't you let me go?
 D G C Bm D 
Do I threaten all your plans, I'm insignificant,
                  G C Bm 
Please tell them you have no plans for me,
 D G C Bm D 
I will set my soul on fire, what have I become?
                Em 
I'll tell them!




Intro B/PostChorus:
 Em Em Em Em C C C  C(Bm)




Spittin' Again:
 Em 
On the eve of a day that's forgotten and fake,

As the trees they await and clouds anticipate,

The start of a day when we put on our face,
                                            C 
A mask that portrays that we don't need grace,

On the eve of a day that is bigger than us,

But we open our eyes 'cause we're told that we must,

And the trees wave their arms and the clouds try to plead,
 Bm Em 
Desperately yelling there's something we need,

I'm not free I asked forgiveness three times,

Same amount that I denied, I three-time mvp'ed this crime,
        C 
I'm afraid to tell you who I adore, won't tell you what I'm sing towards,
                                        Bm 
Metaphorically I'm a whore, and that's denial number four.

 Em Em Em Em 




Verse 2:
 G F#m  (D)   Em Am D 
           I'll stay awake, 'Cause the dark's not taking prisoners tonight.

 G F#m D Em Am D G F#m D Em 
Why am I not scared

Dont Make Me Go chords – Johnny Cash V2

 G C 
You take my hand and smile at me 

           G D7 
But I can tell you'd rather be
 
  C D7 G 
Alone or with somebody else you know
 
                    C 
And when your eyes look into mine 

      G D7 
That old time love light doesn't shine
 
     C D7 G 
But let me try again don't make me go


        C 
I want you don't make me go
 
                G 
My heart would break I'd miss you so 

         D7 G G7 
Trading love for sympathy is old to me
 
             C 
What's this lovesick heart to do
 
         G 
When it cries for only you
 
         D7 G 
Hold me close I love you so don't make me go

 
                  C 
I'm sorry that I never knew 

     G D7 
The way to show my love to you
 
 C D7 G 
I took too much for granted all the time 

                         C 
Two hearts in love must give and take 

      G D7 
When one heart fails the other breaks 

      C D7 G 
Don't make me go I wanna show this love of mine

 
        C 
I want you don't make me go
 
                G 
My heart would break I'd miss you so 

         D7 G G7 
Trading love for sympathy is old to me 

             C 
What's this lovesick heart to do 

         G 
When it cries for only you 

         D7 G 
Hold me close I love you so don't make me go

Round Here Buzz chords – Eric Church V2

 D 
Another Friday night
 D 
There's a line of cars leaving
 D 
Home team's got an out-of-towner
 D 
Me, I'm sitting on the hood of mine drinking
 D G 
I'm just a parking lot down-and-outer

 D 
Under that high school bleacher
 D 
I drove that preacher's daughter crazy
 D 
Her mama was my homeroom teacher
 D G 
And her dad was hell bent on saving me

            A 
Yeah, I'm sure there's higher highs
 A 
Where the high risers rise
     G 
But me, I'm gonna sit right here tonight, and

             D 
Catch me a 'round here buzz
                  G 
Cause you ain't 'round here none
                   D 
Keep putting 'em down here, 'nother round here
           G 
'Til my down goes up
                  D 
Lit up like that one stoplight
                  G Em 
Across from that welcome sign
                    A G 
Ever since you caught that out there bug
                D 
I catch me a 'round here buzz

 D 
I never had big-city eyes
 D 
Hell, I've never been east of Dallas
 D 
Got no idea where you are now
 D G 
Or if you ever got that penthouse palace

 A 
No, Scotty's ain't got no vibe
 A 
Got no gas in his neon light
    G 
But he's got two-for-one 'til 2:00 tonight

            D 
Catch me a 'round here buzz
                  G 
Cause you ain't 'round here none
                   D 
Keep putting 'em down here, 'nother round here
           G 
'Til my down goes up
                  D 
Lit up like that one stoplight
                  G Em 
Across from that welcome sign
                   A G 
Ever since you caught that out there bug
                D 
I catch me a 'round here buzz


SOLO

                D 
Catch me a 'round here buzz
                  G 
Cause you ain't 'round here none
                D 
Keep putting 'em down here, 'nother round here
          G 
'Til my down here
                     D 
Is lit up like that one stoplight
                  G Em 
Across from that welcome sign       
                   A G 
Ever since you caught that out there bug
                D 
I catch me a 'round here buzz
                 G 
I catch me a 'round here buzz
                 D 
'Round here buzz
                 G 
I catch me a 'round here buzz

 G D G

Training Wheels chords – Melanie Martinez V2

 Chords used are  A ,  Amaj7  (You can use  C#m  instead of  Amaj7 , if you would like),  F#m ,  E , and  D .
No Capo, Standard Tuning.

Intro:  A  [x4]

[Verse 1]
 A 
Riding down, riding down
                 Amaj7 
My hand on your seat

The whole way round
               A    
I carry band-aids on me now
                    Amaj7 
For when your soft hands hit the jagged ground
               F#m 
Wheels aren't even touching the ground
                      E 
Scared to take them off but they're so worn down
                 F#m 
Promise I won't push you straight to the dirt
                           E D 
If you promise me you'll take them off first


[Chorus]
    A 
I love everything you do

When you call me fucking dumb for the stupid shit I do
 Amaj7 
Wanna ride my bike with you
                                     F#m 
Fully undressed, no training wheels left for you
                 E 
I'll pull them off for you
    A 
I love everything you do

When you call me fucking dumb for the stupid shit I do
 Amaj7 
Wanna ride my bike with you
                                     F#m 
Fully undressed, no training wheels left for you
                 E 
I'll pull them off for you


[Verse 2]
 A 
Letting go, letting go
              Amaj7 
Telling you things you already know
 A 
I explode, I explode
             Amaj7 
Asking you where you want us to go
                    F#m 
You've been riding two wheelers all your life
                     Em 
It's not like I'm asking to be your wife
                F#m 
Wanna make you mine, but that's hard to say
                 E D 
Is this coming off in a cheesy way?


[Chorus]
    A 
I love everything you do

When you call me fucking dumb for the stupid shit I do
 Amaj7 
Wanna ride my bike with you
                                     F#m 
Fully undressed, no training wheels left for you
                 E 
I'll pull them off for you
    A 
I love everything you do

When you call me fucking dumb for the stupid shit I do
 Amaj7 
Wanna ride my bike with you
                                     F#m 
Fully undressed, no training wheels left for you
                 E 
I'll pull them off for you


Interlude: 
 D Amaj7 
(Love everything you do)
 D Amaj7 
(Let me ride my bike with you)

(No training wheels left for you)


[Chorus]
    A 
I love everything you do

When you call me fucking dumb for the stupid shit I do
 Amaj7 
Wanna ride my bike with you
                                     F#m 
Fully undressed, no training wheels left for you
                 E 
I'll pull them off for you
    A 
I love everything you do

When you call me fucking dumb for the stupid shit I do
 Amaj7 
Wanna ride my bike with you
                                     F#m 
Fully undressed, no training wheels left for you
                 E A 
I'll pull them off for you

Voi Pluti chords – Direcția 5 V2

 music: Marian Ionescu/Dragoș Bădoi
lyrics: Dragoș Bădoi
 Cântece noi cu Direcția 5(2000)

I:

         Em G 
Printre șoapte te zăresc
        Em G 
Pagini moarte regăsesc
 Am D Em 
Printre oameni singur mă trezesc
 Am D Em 
Printre stele, singur, hoinăresc
         Em G 
Printre șoapte te zăresc
        Em G 
Pagini moarte regăsesc
 Am D Em 
Printre oameni singur mă trezesc
 Am D Em 
Printre stele, singur, hoinăresc

CHORUS:

 G C Am D 
Vreau să visez
 G C Am D 
Vreau să plutesc
 G C Am D 
Vreau să visez
 G C Am D 
Vreau să plutesc din nou 
         Em 
prin nori....

II:

         Em G 
Printre șoapte te zăresc
        Em G 
Pagini moarte regăsesc
 Am D Em 
Printre oameni singur mă trezesc
 Am D Em 
Printre stele, singur, hoinăresc

CHORUS:

 G C Am D 
Vreau să visez
 G C Am D 
Vreau să plutesc
 G C Am D 
Vreau să visez
 G C Am D 
Vreau să plutesc din nou 
         Em 
printre nori....

Cry Baby chords – Melanie Martinez V2

 Please correct me if I'm wrong!

xxx
Track: Cry Baby
Artist: Melanie Martinez
  Cry Baby (2015)
xxx

TUNING: Standard
CAPO ON 1ST

CHORDS USED:  Em B B7 Am C D 

----------------------------------------------------------

INTRO: 
 Em Am  (x3)  
 C B7  


VERSE I:
      Em B7 
You seem to replace
      B Em 
Your brain with your heart
     Em B7   
You take things so hard
     Am B 
And then you fall apart

     Em B7 
You try to explain
       B Em  
But before you can start
       Em B7 
Those cry baby tears
      Am B 
Come out of the dark


PRE-CHORUS:
 Em Am 
  Someone's turning the handle
 C B Em 
 To that faucet in your eyes
         Am 
They're pouring out
       B 
Where everyone can see

 Em Am 
  Your heart's too big for your body
 C B Em  
 It's where your feelings hide
         Am 
They're pouring out
       B 
Where everyone can see



CHORUS:
               C 
They call you cry baby, cry baby
 Em 
But you don't fucking care
 D 
Cry baby, cry baby
 Am 
So you laugh through your tears

 C 
Cry baby, cry baby
 Em 
Cause you don't fucking care
 D 
Tears fall to the ground
 Am 
You just let them drown


REPEAT INTRO


VERSE II:
        Em B7 
You're all on your own and
     B Em 
You lost all your friends
 Em B7 
 You told yourself that
      Am B 
It's not you, it's them

        Em B7 
You're one of a kind
        B Em 
And no one understands
           Am 
But those cry baby tears
        B 
Keep coming back again


REPEAT PRE-CHORUS

REPEAT CHORUS I


 C 
Cry baby, cry baby
 Em 
You just let them drown
 D 
Cry baby, cry baby
 Am 
You just let them drown


BRIDGE:
 Em 
I look at you and I see myself
 C 
I know you better than anyone else
 Am 
I have the same faucet in my eyes
 C 
So your tears
     D 
Are mine


CHORUS II: (x2) 
              C 
They call me cry baby, cry baby
 Em 
But I don't fucking care
 D 
Cry baby, cry baby
 Am 
I laugh through my tears

 C 
Cry baby, cry baby
 Em 
Cause I don't fucking care
 D 
Tears fall to the ground
 Am 
I just let them drown


Ends on  Em

De Ce Iubim chords – Direcția 5 V2

 music: Marian Ionescu
lyrics: Cristi Enache
 Octombrie(2001)

I:

                E C#m 
Nu vreau sa-nteleg nimic din ce-mi spui
           A E B7 
Iar orele trec, este noapte acum. 


II:

          E C#m 
Nu ma ascund, ma stii prea bine
             A 
nu vreau sa fug
          E B 
Mi-ar fi mult prea prea greu fara tine. 


Refren:

              A E B7 
De ce nu mai e la fel cum era? 
              A E B7 
De ce m-am lasat atins de mana ta? 
              A E B7 
De ce norii grei nu vor sa plece? 
              A E B7 
De ce in sufletul meu e gol si rece? 


III:

               E C#m 
Tu te-ai schimbat, dar nu recunosti
         A E B7 
Eu am aflat cum sa te pastrez sa ma cunostï. 

Refren:

              A E B7 
De ce nu mai e la fel cum era? 
              A E B7 
De ce m-am lasat atins de mana ta? 
              A E B7 
De ce norii grei nu vor sa plece? 
              A E B7 
De ce in sufletul meu e gol si rece? 
              A E B7 
De ce nu mai e la fel cum era? 
              A E B7 
De ce m-am lasat atins de mana ta? 
              A E B7 
De ce norii grei nu vor sa plece? 
              A E B7 
De ce in sufletul meu e gol si rece? 

Rebellion Lies Acoustic chords – Arcade Fire V2

 Standard Tuning EADGBe 


Intro:  A# D# A# Gm 


Verse 1: 

 A# D# A# Gm 
Sleeping is giving in, no matter what the time is 
 A# D# A# Gm 
Sleeping is giving in, so lift those heavy eyelids. 
 A# D# A# Gm 
People say that you'll die, faster than without water. 
 A# D# A# Gm 
But we know it's just a lie, scare your son, scare your daughter.  

 A# D# A# Gm 
People say that your dreams, are the only things that save ya. 
 A# D# A# Gm 
Come on baby in our dreams, we can live our misbehavior. 


Chorus 1: 

 A# D# 
Every time you close your eyes    (Lies, Lies)
 A# D# 
Every time you close your eyes    (Lies, Lies)
 A# D# 
Every time you close your eyes    (Lies, Lies)
 A# D# 
Every time you close your eyes    (Lies, Lies)
 A#m F# 
Every time you close your eyes     (Lies, Lies)
 C# G# 
Every time you close your eyes     (Lies, Lies)


Verse 2: 

 A# D# A# Gm 
People try and hide the night, underneath the covers. 
 A# D# A# Gm 
People try and hide the light, underneath the covers. 

 A# D# A# Gm                   
Come on hide your lovers, underneath the covers, 
 A# D# A# Gm 
come on hide your lovers, underneath the covers. 
 A# D# A# Gm 
Hidin' from your brothers, underneath the covers, 
 A# D# A# Gm 
come on hide your lovers, underneath the covers. 


Verse 3:

 A# D# A# Gm 
People say that you'll die, faster than without water. 
 A# D# A# Gm 
But we know it's just a lie, scare your son, scare your daughter.  
 A# D# A# Gm 
Scare your son, scare your daughter, scare your son, scare your daughter. 


Chorus 2: 

     A# D#       
Now here's the sun, it's alright! (Lies!) 
     A# D# 
Now here's the moon, it's alright! (Lies!)
     A# D#  
Now here's the sun, it's alright! (Lies!)
     A# D#  
Now here's the moon it's alright (Lies!) 
     A#m F# 
But every time you close your eyes. (Lies!) 
 C# G# 
Every time you close your eyes.





(fade out till end)

Blasphemy solo Tabs – Bring Me The Horizon V2

 -------------------------------------------------------------------------------
                             BLASPHEMY - Bring Me The Horizon
-------------------------------------------------------------------------------
:Maddy S
Instagram:maddybvb


Tuning:A# (B flat)

C |----------------------------------------------------------------------------------------------| 
G |------------13-------13/15----17(b)18(r)17----------------------------------------------------|
D#|---12/14---------14------------------------------------------12-------------------------------|
A#|----------------------------------------------------------------------------------------------|
F |----------------------------------------------------------------------------------------------|
A#|----------------------------------------------------------------------------------------------|

e|---10------------------------------------------10/--------------------------------------------------|
B|--------10--13---------------------------------10/--------------------------------------------------|
G|------------------12-10h12-12/14-12-10--------------------------------------------------------------|
D|----------------------------------------------------------------------------------------------------|
A|----------------------------------------------------------------------------------------------------|
E|----------------------------------------------------------------------------------------------------|

e|---10-----------------------------------------------------------------------------------------------|
B|-------13p10--------13p10-------------------------------------------13------------------------------|
G|---------------12----------12----------------10----------12/14-----------12-------------------------|
D|-------------------------------12-----10h12-------12------------------------------------------------|
A|----------------------------------------------------------------------------------------------------|
E|----------------------------------------------------------------------------------------------------|

e|-------------------------------------------13-15-15(b)17---17(b)20----15--17--13--------------------|
B|--15/17--13-13------------------13h15-----------------------------------------------15--------------|
G|----------------12p10-------------------------------------------------------------------------------|
D|----------------------------------------------------------------------------------------------------|
A|----------------------------------------------------------------------------------------------------|
E|----------------------------------------------------------------------------------------------------|


************************************

| /   slide up
| \   slide down
| h   hammer-on
| p   pull-off
| ~   vibrato
| +   harmonic
| x   Mute note
| b   Bend
| pb  Pre-bend
| br  Bend release
| pbr Pre-bend release
| brb Bend release bend

************************************

Everglow chords – Coldplay V2

 Arranged for guitar by Paul Davids
Capo fret 4
         
[INTRO] 
/Piano arranged for guitar (or just strum the chords)\

                           Am F C Em7 
|-----------------------|-----8--7--5-----3--------|--0--3--0----------------|
|-----------------------|--5-------------------1-3-|--1--------3---------1-3-|
|-------------------5-7-|--5--------5-----5--------|-----------0-------------|
|-----------------------|-----------3--------------|-----------2-------------|
|-----------------------|--0-----------------------|--3----------------------|
|-----------------------|--------------------------|-----------0-------------|


  Am F C G Am F     
--0-----------------------|-------0-------------------|-----8--7--5-----3--------|
-----3--1-----------------|--1--3------3--------------|--5-------------------1-3-|
-----------2-----0--------|--0---------0----------5-7-|--5--------5-----5--------|
--------------------------|---------------------------|-----------3--------------|
--0-----------------------|--3------------------------|--0-----------------------|
-----------1----------(3)-|------------3--------------|--------------------------|


   C Em7 Am F Gsus4 G 
--0--3--0----------------|--0-----------------------|--------------------------|
--1--------3---------1-3-|-----3--1-----------------|--1-------------------1-3-|
-----------0-------------|-----------2-----0-----0--|------0-------------------|
-----------2-------------|--------------------3-----|--0-----0-----------------|
--3----------------------|--0-----------------------|-------------2------------|
-----------0-------------|-----------1--------------|--3-----------------------|


   Am F G                               
--0----------------------|------------------------------|
-----3--1----------------|----1--3-3---1-0--------------|
-----------2-----0-------|----0----0-----0--------------|
-------------------------|------------------------------|
--0----------------------|------------------------------|
-----------1-------------|----3----3-----3--------------|

 

[VERSE 1]
           Am F 
Well they say people come
 C Em7 
Say people go
         Am F C G 
This particular diamond is extra special

        Am F  
I know you might be gone, 
          C Em7 
and the world may not know
         Am F Gsus4 G 
Still I see you celestial

[BIDGE]
|:    Am F       |    C G     :| 2x

[VERSE2]
        Am F 
Like a lion you ran
 C Em7 
God his hero
         Am F 
Like an eagle you circle
 C G 
Perfect of all

    Am F 
So how come things move on?
     C Em7 
How come cars don't slow?
 Am F Gsus4 G 
When it feels like the end of my world
        Am F Gsus4 G 
When I should but I can't let you go


[CHORUS 1]
               Am F C Em7 
But when I'm cold,        coooohoohooold
    Am F C G 
When I'm cold,    cooohooohooold
           Am F 
There's a light that you give me
      C Em7 
When I'm in shadows
          Am F G         
There's a feeling of ever, everglow


[BIDGE 2]
|:    Am F       |    <sp

Dont Dream Its Over Acoustic chords – Crowded House V2

 Standard Tuning EADGBe 


 D#sus2  - x68866


Intro:  D#sus2 


Verse 1: 

 D#sus2 Cm G# G    
There is freedom within there is freedom without, Try to catch the deluge in a paper cup
 D# Cm G#                                    
There's a battle ahead many battles are lost, but you'll never see the end of the road-
               G 
-while you're travelling with me


Chorus 1: 

 G# A# D# Cm 
Hey now, hey now don't dream it's over
 G# A# D# Cm 
Hey now, hey now when the world comes in
 G# A# D# Cm 
They come, they come, to build a wall between us
 G# G# A# 
We know they won't win


Verse 2:

 D#sus2 Cm G# G       
Now Im towing my car,theres a hole inthe roof,my possessions r causin me suspicion but theresno proof
 D# Cm G# G 
In the paper today tales of war and of waste, but you turn right over to the T.V. page


Chorus 2: 

 G# A# D# Cm 
Hey now, hey now don't dream it's over
 G# A# D# Cm 
Hey now, hey now when the world comes in
 G# A# D# Cm 
They come, they come, to build a wall between us
 G# G# A# 
We know they won't win


Verse 3:

 D#sus2 Cm G# G 
Now I'm walking again to the beat of a drum, and I'm counting the steps to the door of your heart
 D# Cm G# G   
Only the shadows ahead barely clearing the roof, get to know the feeling of liberation and relief


Chorus 3: 

 G# A# D# Cm 
Hey now, hey now don't dream it's over
 G# A# D# Cm 
Hey now, hey now when the world comes in
 G# A# D# Cm 
They come, they come, to build a wall between us
 G# G# A# 
We know they won't win




(end)

All I Ask chords – Adele V2

 E G#m A B E G#m 
I will leave my heart at the door
         A 
I won't say a word
         B 
They've all been said before, you know
     
    E G#m 
So why don't we just play pretend
               A 
Like when I'm scared of what is coming next
    B G# G#/C 
Or scared of having nothing left

       C#m E/B 
Look, don't get me wrong, I know
                  F#m 
There is no tomorrow
 F#m7/B 
All I ask is 


 E C#7 C#7/F F#m 
If this is my last night with you
 A/B B7 B/D# E 
hold me like I'm more than just a friend
           C#7 C#7/F F#m 
give me a memory I  can use
 A/B B7 
take me by the hand
 B/D# E B/D# C#m 
while we do what lovers do
            E/G# F#m7 
it matters how this ends
        A/B E 
'Cause what If I never love again?

 G#m A B E 
I don't need
      G#m 
Your honesty
              A 
it's already in your eyes
         B 
and I'm sure my eyes, they speak for me

 E G#m 
No one knows me like you do
                       A 
and since you're the only one that matters
          B G# G#/C 
tell me, who do I run to?


       C#m E/B 
Look, don't get me wrong, I know
                 F#m 
There is no tomorrow
 F#m7/B 
All I ask is 


 E C#7 C#7/F F#m 
If this is my last night with  you
 A/B B7 B/D# E 
hold me like I'm more than just a friend
           C#7 C#7/F F#m 
give me a memory I  can use
 A/B B7 
take me by the hand
 B/D# E B/D# C#m 
while we do what lovers do
            E/G# F#m7 
it matters how this ends
        A/B E/D 
'Cause what If I never love again?

                 A G#m F#m 
Let this be our lesson in love
                 A/B B7 B/A G#m 
let this be the way  we remember us
                    G# G#/C G#/D# C#m 
I don't want to be cruel or       vicious 
             F#m7 
And I ain't asking for forgiveness
 A/B C7sus4 
All I ask is 


 F D7 D/F# Gm 
If this is my last night with you
 Bb/C C7 C7/E F 
hold me like I'm more than just a friend
           D7 D/F# Gm 
give me a memory I can use
 Bb/C C7  
take me by the hand
 C7/E F C/E Dm7 
while we do what lovers do
            F/A Gm 
it matters how this ends
        Bb/C C7sus4 F 
'Cause what If I never lo...ve   again



Original tab by DDDiego. I fixed up chords in transitions and chorus.

De Camino A La Vereda chords – Buena Vista Social Club V2

 CHORUS:

 D# G# A#7 D# 
!Óigame compay! No deje camino por coger la vereda
 D# G# A#7 D# 
!Óigame compay! No deje camino por coger la vereda

I:

 D# G# 
Usted por enamorado
 A#7 D# 
Tan viejo y con poco brillo
 D# G# 
Usted por enamorado
 A#7 D# 
Tan viejo y con poco brillo
 D# G# 
El pollo que tiene al lado
 A#7 D# 
Le ha hecho perder el trillo

CHORUS:

 D# G# A#7 D# 
!Óigame compay! No deje camino por coger la vereda
 D# G# A#7 D# 
!Óigame compay! No deje camino por coger la vereda

II:

 D# G# 
Ay, pero yo como soy tan sencillo
 A#7 D# 
Pongo en claro esta trovada
 D# G# 
Yo como soy tan sencillo
 A#7 D# 
Pongo en claro esta trovada
 D# G# 
Compay, yo no dejo el trillo
 A#7 D# 
Para meterme en Canadá

CHORUS:

 D# G# A#7 D# 
!Óigame compay! No deje camino por coger la vereda
 D# G# A#7 D# 
!Óigame compay! No deje camino por coger la vereda

III:

 D# G# 
Ay, pero estabamo' comentando
 A#7 D# 
Por que ha abandonado a Andrea
 D# G# 
Estabamo' comentando
 A#7 D# 
Por que ha abandonado a Andrea
 D# G# 
Compadre uste' 'ta cambiando
 A#7 D# 
De camino por vereda

CHORUS:

 D# G# A#7 D# 
!Óigame compay! No deje camino por coger la vereda
 D# G# A#7 D# 
Pero óigame compay! No deje camino por coger la vereda
 D# G# A#7 D# 
!Óigame compay! No deje camino por coger la vereda
 D# G# A#7 D# 
Pero mire compadrito, uste' ha 'dejao' a la
  D# G# A#7 D# 
!Óigame compay! No deje camino por coger la vereda
 D# G# A#7 D# 
Pobre Geraldina para meterse con Dorotea
  D# G# A#7 D# 
!Óigame compay! No deje camino por coger la vereda
  D# G# A#7 D# 
!Óigame compay! No deje camino por coger la vereda
  D# G# A#7 D# 
!Óigame compay! No deje camino por coger la vereda

BRIDGE:

    D# 
No hables de tu marido, mujer
                     A# 
Mujer de malos sentimientos
 A#7 
Todo se te ha vuelto un cuento
                              D# 
Porque no ha llegado la hora fatal

CHORUS:

  D# G# A#7 D# 
!Óigame compay! No deje camino por coger la vereda
  D# G# A#7 D# 
Ay pero óigame compay! No deje camino por coger la vereda
  D# G# A#7 D# 
!Óigame compay! No deje camino por coger la vereda
 D# G# A#7 D# 
Ay ay ay ay, canta y no llore' Eliade'
  D# G# A#7 D# 
!Óigame compay! No deje camino por coger la vereda
  D# G# A#7 D# 
Porque cantando se alegran, cielito mio los corazones
  D# G# A#7 D# 
!Óigame compay! No deje

Pretty On The Inside Tabs – Hole V2

 -------------------------------------------------------------------------------
                             Pretty on the Inside - Hole
-------------------------------------------------------------------------------
: Scott

Tuning: EADGBE

This is an alternate way of playing the song

e|-------------------------------------------|
B|---00000000-00000000-00000000-00000000-----|
G|---22222222-33333333-44444444-55555555-----|
D|---00000000-11111111-22222222-33333333-----|
A|---00000000-00000000-00000000-00000000-----|
E|-------------------------------------------|


   Slutkiss girls, won't you promise her smack
   Is she pretty on the inside?
   Is she pretty from the back?
   Slutkiss girls, won't you water her rack
   Is she pretty on the inside
   Baby, pretty from the back?
   Slutkiss girl molasses, rot blackstrap
   Is she ugly on the inside, baby
   Ugly, ugly from the back?

   There is no power like my pretty power
   Like my pretty power
   Like my ugly

   Slutkiss girls, won't you promise her smack
   Is she pretty on the inside?
   Is she ugly? 
   Ugly? Ugly? Ugly? Ugly? 
   Ugly? Ugly? Ugly? Ugly?

Oh Lonesome Me chords – Don Gibson V2

 Oh Lonesome Me:Don Gibson.
#1 US Country and #7 on BB Hot
100 on RCA Records in 1958.

INTRO:  Eb 

#1.
 Eb Bb 
Everybody's goin' out and havin' fun.

I'm just a fool for staying home and 
 Eb 
havin' none.
                                 Ab 
I can't get over how she set me free.
 Bb Eb 
Oh, lonesome me.

#2.
 Eb Bb 
A bad mistake I'm making by just hangin'

round.
 Bb 
I know that I should have some fun and 
 Eb 
paint the town.
 Eb Ab 
A lovesick fool is blind and just can't see.
 Bb Eb 
Oh, lonesome me.

CHORUS:
      Bb F 
I'll bet she's not like me, she's out and 

fancy free..flirting with the boys with all 
     Bb 
her charms.
 Bb F 
But I still love her so, and brother don't 

you know..I'd welcome her right back here 
       Bb 
in my arms.

#3.
 Bb Eb 
Well, there must be some way I can lose these 
 Bb 
lonesome blues.
 Bb Eb 
Forget about the past and find somebody new.
 Eb Ab 
I've thought of everything from A to Z.
 Bb Eb 
Oh, lonesome me.


INTERLUDE:  Eb Bb Eb Ab Bb Eb 

CHORUS:
      Bb F 
I'll bet she's not like me, she's out and 

fancy free..flirting with the boys with all 
     Bb 
her charms.
 Bb F 
But I still love her so, and brother don't 

you know..I'd welcome her right back here 
       Bb 
in my arms.

#4.
 Bb Eb 
Well, there must be some way I can lose these 
 Bb 
lonesome blues.
 Bb Eb 
Forget about the past and find somebody new.
 Eb Ab 
I've thought of everything from A to Z.
 Bb Eb 
Oh, lonesome me.

OUTRO:
 Bb Eb Bb Eb 
Oh, lonesome me..oh, lonesome me..(Fade.)



A fifties smash from Kraziekhat.

Sunbather Tabs – Deafheaven V2

 Deafheaven - Sunbather

This is more or less just a finished version of rain_smell's partial tab. Not 100% on some of the chords,
especially in the outro, but this should give you a good idea of how it goes. 
Didn't tab out every single note, but it's pretty easy to hear the chord changes.





Intro
e|---------------------------------------------------------------------------|
B|---------------------------------------------------------------------------|
G|---------11-13-14--8--9-11-13----------------------------------------------|
D|--6----6--x--x--x--x--x--x--x--6----6--6-----------------------------------| x2
A|--7----7--9-11-12--6--7--9-11--7----7--6-----------------------------------|
E|--9----0-----------------------4----7--7-----------------------------------|

e|---------------------------------------------------------------------------|
B|---------------------------------------------------------------------------|
G|---------11-13-14-16-18-20-21----------------------------------------------|
D|--6----6--x--x--x--x--x--x--x--6----6--6-----------------------------------| x1
A|--7----7--9-11-12-14-16-18-19--7----7--6-----------------------------------|
E|--9----0-----------------------4----7--7-----------------------------------|

"I grip the wheel..."
e|---------0----------0----------0--------0----------------------------------|
B|----------0----------0----------0------------------------------------------|
G|---------------------------------------------------------------------------|
D|--2-2--------4-4--------6-6--------6-6-------6----7------------------------| x1
A|--x-x--------x-x--------7-7--------7-7-------7----6------------------------|
E|--5-5--------5-5--------5-5--------5-5-------0----0------------------------|

"I sweat against the leather..."
e|---------0----------0----------0--------0----------------------------------|
B|----------0----------0----------0------------------------------------------|
G|---------------------------------------------------------------------------|
D|--2-2--------4-4--------6-6--------6-6-------------------------------------| x1
A|--x-x--------x-x--------7-7--------7-7-------------------------------------|
E|--5-5--------5-5--------5-5--------5-5-------------------------------------|

"I watched the dogs twist through..." 
Guitar 1                       
e|---------------------------------------------------------------------------|
B|---------------------------------------------------------------------------|
G|---------------------------------------------------------------------------|
D|--6----7----7--6-------------------6---------------------------------------|
A|--7----7----7--7-----x2, end on----7---------------------------------------|
E|--9----7----5--5-------------------9---------------------------------------|
Guitar 2
e|---------------------------------------------------------------------------|
B|---------------------------------------------------------------------------|
G|--9---11----8----9---11----8---13---16---11----9--8------------------------|
D|--x----x----x----x----x----x----x----x----x----x--x--6---------------------|
A|--7----9----6----7----9----6---11---14----9----7--6--7---------------------|
E|-----------------------------------------------------9---------------------|

Not sure about the clean part, so I'll leave it out for now

Post-clean part, around 3:09 in the song
e|---------------------------------------------------------------------------|
B|---------------------------------------------------------------------------|
G|-----------9----6----------------------------------------------------------|
D|--6--------6----7----------------------------------------------------------| x2
A|--7--------7----7----------------------------------------------------------|
E|--0--------9----5----------------------------------------------------------|

e|---------------------------------------------------------------------------|
B|---------------------------------

Nervous chords – X Ambassadors V2

 ***PS**** Listen to the song for the strumming pattern!

Capo - 1

Intro -  Am G F E  (x2)


Verse 1

 Am G F E 
  Too good
          Am G F E 
Ain't it all too good?
            Am G F E Am G F E 
Looks like Lady Luck is waking up on the right side

 Am G F E 
  Doing just fine
    Am G F E 
Get along just fine
        Am G F E Am G F E 
I keep waking up afraid to look on the bright side

Chorus
       Am C 
I get nervous when I'm happy
       F E  
I get nervous cause what comes up must come down
       Am C 
I get nervous when I'm happy
       F E  
I get nervous cause what comes up must come down (ooh ooh ooh)

 Am G F E  (x2)

Verse 2
 Am G F E 
  OK
      Am G F E 
Doing A-OK
        Am G F E Am G F E 
I feel right as rain, and I can't complain; it's amazing

        Am G F E 
And I'm getting alright
              Am G F E 
There's not a cloud in sight
          Am G F E Am G F E 
Lifts me off my feet, feels so sweet I can taste it


Chorus 2
       Am C 
I get nervous when I'm happy
       F E  
I get nervous cause what comes up must come down
       Am C 
I get nervous when I'm happy
       F E  
I get nervous cause what comes up must come down (ooh ooh ooh)

 Am 
  I get nervous
              C 
(ooh ooh ooh) I get nervous (ooh ooh ooh)
 F E  
   I get nervous cause what comes up must come down (ooh ooh ooh)

 Am G F E  (x2)


Bridge

 Am G F E 
     I get nervous (nervous)
 Am G F E 
     So, so nervous
 Am G F E 
     I get nervous (nervous)

Am G F(stop as soon as u hit the F)


Chorus 2
       Am C 
I get nervous when I'm happy
       F E  
I get nervous cause what comes up must come down
       Am C 
I get nervous when I'm happy
       F E  
I get nervous cause what comes up must come down

 Am 
  I get nervous
              C 
(ooh ooh ooh) I get nervous (ooh ooh ooh)
 F E  
   I get nervous cause what comes up must come down (ooh ooh ooh)

Kissin Dynamite Tabs – AC/DC V2

 -------------------------------------------------------------------------------
                             Kissin Dynamite - AC/DC
-------------------------------------------------------------------------------
: jothunder

Tuning: Standard

Disclaimer: This tab does not contain the guitar solo!

-------------------------------------------------------------------------------
    LEAD GUITAR

INTRO

e|------------------------------------------------------------------|
B|---5---------------3-x-3-----------5---------------3-x-3/-5-------|
G|---4---------------2-x-2-0---------4---------------2-x-2/-4-------| Play
D|-------------------------0----------------------------------------|  2x
A|-2---------------2---------------2---------------2----------------|
E|------------------------------------------------------------------|


VERSE

e|------------------------------------------------------------------|
B|-------------------------8----------------------------------------|
G|---9---------------7-x-7-7---------9---------------7-x-7/-9-------|
D|-9-9-------------9-7-x-7-5-------9-9-------------9-7-x-7/-9-------|
A|-9-7-------------9-5-x-5---------9-7-------------9-5-x-5/-7-------|
E|-7---------------7---------------7---------------7----------------|

e|-----------------------------------------------------------------|
B|-------------------------8-------------------------------8-------|
G|---9---------------7-x-7-7---------9---------------7-x-7-7-------|
D|-9-9-------------9-7-x-7-5-------9-9-------------9-7-x-7-5-------|
A|-9-7-------------9-5-x-5---------9-7-------------9-5-x-5---------|
E|-7---------------7---------------7---------------7---------------|

e|---------------------------------------|      \
B|---------------------------------------|       |
G|-------------------------------2-x-----| Play  |
D|-3\2-0p-------2-x---3\2-0p-----2-x-----|  3x   |
A|----------2---2-x------------2-0-x-----|       |
E|--------------0-x----------------------|       |
                                                 |- Play 2x
e|-------------------|                           |
B|-----3-------------|                           |
G|-----2-----2-------| Play                      |
D|-3\2-0-----2-------|  2x                       | 
A|-----------0-------|                           |
E|-------------------|                          /


REFRAIN

e|-----------------------------------------------------------------|
B|-----------------------------------------------------------------|
G|-4-4-4-4-4-4-4-4-4-4-4-4-4-4-4-4-1-1-1-1-1-1-1-1-1-1-1-1-1-1-1-1-|
D|-5-5-5-5-5-5-5-5-5-5-5-5-5-5-5-5-2-2-2-2-2-2-2-2-2-2-2-2-2-2-2-2-|
A|-5-5-5-5-5-5-5-5-5-5-5-5-5-5-5-5-2-2-2-2-2-2-2-2-2-2-2-2-2-2-2-2-|
E|-3-3-3-3-3-3-3-3-3-3-3-3-3-3-3-3-0-0-0-0-0-0-0-0-0-0-0-0-0-0-0-0-|

e|-------------------------------------------------------------------|
B|-4-4-4-4-4-4-4-4-4-4-4-4-4-4-4-4-4-4-4-4-4-4-4-4-------------4-4-x-|
G|-4-4-4-4-4-4-4-4-4-4-4-4-4-4-4-4-4-4-4-4-4-4-4-4-------------4-4-x-|
D|-4-4-4-4-4-4-4-4-4-4-4-4-4-4-4-4-4-4-4-4-4-4-4-4-------------4-4-x-|
A|-2-2-2-2-2-2-2-2-2-2-2-2-2-2-2-2-2-2-2-2-2-2-2-2-------------2-2-x-|
E|-------------------------------------------------------------------|


VERSE

e|------------------------------------------------------------------|
B|-------------------------8----------------------------------------|
G|---9---------------7-x-7-7---------9---------------7-x-7/-9-------|
D|-9-9-------------9-7-x-7-5-------9-9-------------9-7-x-7/-9-------|
A|-9-7-------------9-5-x-5---------9-7-------------9-5-x-5/-7-------|
E|-7---------------7---------------7---------------7----------------|

e|-----------------------------------------------------------------|
B|-------------------------8-------------------------------8-------|
G|---9---------------7-x-7-7---------9---------------7-x-7-7-------|
D|-9-9-------------9-7-x-7-5-------9-9-------------9-7-x-7-5-------|
A|-9-7-------------9-5-x-5---------9-7-------------9-5-x-5---------|
E|-7---

Sorry chords – Justin Bieber V2

 Without Capo

Intro:
 G# Cm A# G# Cm A# 

[Verse 1]
 G# Cm A# 
You gotta go and get angry at all of my honesty
 G# Cm A# 
You know I try but I don't do too well with apologies
   G# Cm A# 
I hope I don't run out of time, could someone call a referee?
              G# Cm A# 
Cause I just need one more shot at forgiveness
 G# Cm A# 
I know you know that I made those mistakes maybe once or twice
 G# Cm A# 
By once or twice I mean maybe a couple a hundred times
    G# Cm A# 
So let me, oh let me redeem, oh redeem, oh myself tonight
              G# Cm A# 
Cause I just need one more shot at second chances

[Pre-Chorus]
       G# Cm A# 
Yeah, is it too late now to say sorry?
           G# Cm A# 
Cause I'm missing more than just your body
 G# Cm A# 
Is it too late now to say sorry?
        Fm 
Yeah I know that I let you down
    G# A# 
Is it too late to say I'm sorry now?

[Chorus]
 G# Cm A# G# Cm 
      I'm sorry, yeah
 A# G# Cm 
Sorry, yeah
 A# 
Sorry
        Fm 
Yeah I know that I let you down
    G# A# 
Is it too late to say I'm sorry now?

[Verse 2]
      G# Cm A# 
I'll take every single piece of the blame if you want me to
     G# Cm A# 
But you know that there is no innocent one in this game for two
      G# Cm A# 
I'll go, I'll go and then you go, you go out and spill the truth
        G# Cm A# 
Can we both say the words and forget this?

[Pre-Chorus]
 G# Cm A# 
Is it too late now to say sorry?
           G# Cm A# 
Cause I'm missing more than just your body
 G# Cm A# 
Is it too late now to say sorry?
        Fm 
Yeah I know that I let you down
    G# A# 
Is it too late to say I'm sorry now?

[Bridge]
 G# Cm A# 
I'm not just trying to get you back on me
 G# Cm A# 
Cause I'm missing more than just your body
 G# Cm A# 
Is it too late now to say sorry?
        Fm 
Yeah I know that I let you down
    G# A# 
Is it too late to say I'm sorry now?

[Chorus]
 G# Cm A# G# Cm 
      I'm sorry, yeah
 A# G# Cm 
Sorry, yeah
 A# 
Sorry
        Fm 
Yeah I know that I let you down
    G# A# 
Is it too late to say I'm sorry now?
[Chorus]
 G# Cm A# G# Cm 
      I'm sorry, yeah
 A# G# Cm 
Sorry, yeah
 A# 
Sorry
        Fm 
Yeah I know that I let you down
    G# A# 
Is it too late to say I'm sorry now?