Tag: v3

Perfect chords by Ed Sheeran V3

     E-A-D-G-B-e
G    3-x-0-0-3(3)
Em   0-2-2-0-3(3) (= Em7)
C    x-3-2-0-3(3) (= Cadd9)

[Intro]
G

[Verse]
          G        Em
I found a love for me
             C                            D
Darling just dive right in, and follow my lead
               G           Em
Well I found a girl beautiful and sweet
         C                                    D
I never knew you were the someone waiting for me

[Pre-Chorus]
                                 G
Cause we were just kids when we fell in love
             Em                     C                G  D
Not knowing what it was, I will not give you up this ti-ime
                   G                         Em
But darling just kiss me slow, your heart is all I own
            C                   D
And in your eyes you're holding mine

[Chorus]
      Em   C             G          D              Em
Baby, I'm dancing in the dark, with you between my arms
C                G     D                Em
Barefoot on the grass, listening to our favorite song
          C                G                 D              Em
When you said you looked a mess, I whispered underneath my breath
         C                G        D             G
But you heard it, darling you look perfect tonight

| G D/F# Em D | C  D  |

[Verse]
               G                    Em
Well I found a woman, stronger than anyone I know
                C                                        D
She shares my dreams, I hope that someday I'll share her home
           G             Em
I found a love, to carry more than just my secrets
         C                              D
To carry love, to carry children of our own

[Pre-Chorus]
                              G                     Em
We are still kids, but we're so in love, fighting against all odds
                  C               G  D
I know that we'll be alright this ti-ime
               G                            Em
Darling just hold my hand, be my girl, I'll be your man
          C              D
I see my future in your eyes

[Chorus]
      Em   C              G         D              Em
Baby, I'm dancing in the dark, with you between my arms
C                G     D                Em
Barefoot on the grass, listening to our favorite song
        C                G                D
When I saw you in that dress, looking so beautiful
  Em       C                  G        D          [ G ]
I don't deserve this, darling you look perfect tonight

[Interlude]
| G  | % | Em | % |
| C  | % | D  | % |

[Chorus]
      Em   C              G         D              Em
Baby, I'm dancing in the dark, with you between my arms
C                G     D                Em
Barefoot on the grass, listening to our favorite song
        C              G               D             Em
I have faith in what I see, now I know I have met an angel
    C          G         D
In person, and she looks perfect

[Outro]
  G/B     C           Dadd4    D        [ G ]
I don't deserve this, you look perfect tonight

| G D/F# Em D | C  D  | G

Young Dumb And Broke chords by Khalid V3

[Verse]
G                 C
  So you're still thinking of me
Em         D
  Just like I know you should
G           C                    Em                D
  I can not give you everything, you know I wish I could
G             C
  I'm so high at the moment
Em                 D
  I'm so caught up in this
G                              C
  Yeah, we're just young, dumb and broke
Em                      D
  But we still got love to give

[Chorus]
             G            C
  While we're young dumb, young-young dumb and broke
Em                             D
  Young dumb, Young-young dumb and broke
G                 C
  Young dumb, Young-young dumb and broke
Em                D
  Young dumb broke high school kids
G       C
  Yadadadadadadada
Em      D
  Yadadadadadada
G       C
  Yadadadadadadada
Em                D
  Young dumb broke high school kids

[Verse 2]
G                 C
  We have so much in common
Em         D
  We argue all the time
G                 C
  You always say I'm wrong
Em         D
  I'm pretty sure I'm right
G                 C
  What's fun about commitment?
Em         D
  When we have our life to live
G                              C
  Yeah, we're just young, dumb and broke
Em                      D
  But we still got love to give


[Chorus]
             G            C
  While we're young dumb, young-young dumb and broke
Em                             D
  Young dumb, Young-young dumb and broke
G                 C
  Young dumb, Young-young dumb and broke
Em                D
  Young dumb broke high school kids
G       C
  Yadadadadadadada
Em      D
  Yadadadadadada
G       C
  Yadadadadadadada
Em                D
  Young dumb broke high school kids

[Bridge] Improve this for me thank you!

Jump and we think,

Leave it all in the game of love, love

Run into sin,

Do it all in the name of fun, fun

I'm so high at the moment

I'm so caught up in this

Yeah, we're just young, dumb and broke

But we still got love to give


[Chorus]
             G            C
  While we're young dumb, young-young dumb and broke
Em                             D
  Young dumb, Young-young dumb and broke
G                 C
  Young dumb, Young-young dumb and broke
Em                D
  Young dumb broke high school kids
G       C
  Yadadadadadadada
Em      D
  Yadadadadadada
G       C
  Yadadadadadadada
Em                D
  Young dumb broke high school kids
G       C
  Yadadadadadadada
Em      D
  Yadadadadadada
G       C
  Yadadadadadadada
Em                D
  Young dumb broke high school kids

Analyse Tabs – Thom Yorke V3

 "Analyse" by Thom Yorke
 Richard Pugh

Main Loop: 
(I use a picking pattern of tx21t21x)

  C                                                                                                  
  1 e + a 2 e + a 3 e + a 4 e + a |1 e + a 2 e + a 3 e + a 4 e + a |1 e + a 2 e + a 3 e + a 4 e + a |
e|--------------------------------|--------------------------------|--------------------------------|
b|--------1-----------1-----------|--------1-----------1-----------|--------1-----------1-----------|
g|------------0-----------0-------|--------------------------------|--------------------------------|
D|--------------------------------|------------3-----------3-------|------------2-----------2-------|
A|3---------------3---------------|3---------------3---------------|3---------------3---------------|
E|--------------------------------|--------------------------------|--------------------------------|
                                x2                               x2                               x2 

 Bbm
 1 e + a 2 e + a 3 e + a 4 e + a 
|--------------------------------|
|--------2-----------2-----------|
|--------------------------------|
|------------3-----------3-------|
|1---------------1---------------|
|--------------------------------|
                                x2

                                
  A#                               G (Play 6 on g towards end)      Fm                               
  1 e + a 2 e + a 3 e + a 4 e + a |1 e + a 2 e + a 3 e + a 4 e + a |1 e + a 2 e + a 3 e + a 4 e + a |
e|--------------------------------|--------------------------------|--------------------------------|
b|--------------------------------|--------------------------------|--------1-----------1-----------|
g|--------5-----------5-----------|--------5-----------5-----------|------------1-----------1-------|
D|------------3-----------3-------|------------5-----------5-------|--------------------------------|
A|--------------------------------|--------------------------------|--------------------------------|
E|4---------------4---------------|3---------------3---------------|1---------------1---------------|
                                x2                               x2                               x4    

A self-fulfilling prophecy of endless possibility
In rolling reams across a screen
In algebra, in algebra

The fences that you cannot climb
The sentences that do not rhyme
In all that you can ever change
I'm the one you're looking for

It gets you down
It gets you down
There's no spark
You've no light in the dark

It gets you down
It gets you down
You travelled far
What have you found

There's no time
There's no time
To analyse
To think things through
To make sense

  E (Play on "sense" after 4 bars of Fm as normal)                  Fm                              
  1 e + a 2 e + a 3 e + a 4 e + a |1 e + a 2 e + a 3 e + a 4 e + a |1 e + a 2 e + a 3 e + a 4 e + a |
e|--------------------------------|--------------------------------|--------------------------------|
b|--------2-----------2-----------|--------1-----------1-----------|--------1-----------1-----------|
g|------------1-----------1-------|------------1-----------1-------|------------1-----------1-------|
D|--------------------------------|--------------------------------|--------------------------------|
A|--------------------------------|--------------------------------|--------------------------------|
E|0---------------0---------------|0---------------0---------------|1---------------1---------------|
                                x2                               x2                               x4   
(Back to main loop)                     
Like candles in the city, they never looked so pretty
By power cuts and blackouts
Sleeping like babies

It gets you down
It gets you down
You're just playing a part
You're just playing a part

You're playing a part
Playing a part
And there's no time
There's no time

To analyse
Analyse
Analyse
    

Fairly Local chords – Twenty One Pilots V3

 ==========================================================
             Fairy Local - Twenty One Pilots
==========================================================


Intro:
 F#m 

Chorus A:
 F#m D                   
    I'm fairly local, I've been around
 Bm F#m 
    I've seen the streets you're walking down
 F#m A 
    I'm fairly local, good people now
 E F#m 
Oh Oh Oh Oh Oh Oh Ooohh


Verse:
 F#m 
    I'm evil to the core
 D 
    What I shouldn't do I will
 Bm 
    They say I'm emotional
 F#m 
    What I want to save I'll kill
 F#m 
    Is that who I truly am?
 A 
    I truly don't have a chance
 E 
    Tomorrow I'll keep a beat
 F#m 
    And repeat yesterday's dance


Spittin':
 F#m D 
Yo, this song will never be on the radio
 F#m 
Even if my clique were to pick and the people were to vote

It's the few, the proud, and the emotional
 F#m A 
Yo, you, bulletproof in black like a funeral
 F#m 
The world around us is burning but we're so cold

It's the few, the proud, and the emotional



Chorus B:
 F#m D                   
    I'm fairly local, I've been around
 Bm F#m 
    I've seen the streets you're walking down
 F#m A 
    I'm fairly local, good people now
 E F#m 
Oh Oh Oh Oh Oh Oh Ooohh
 E F#m 
Oh Oh Oh Oh Oh Oh Ooohh


Verse

Spittin'

Chorus B (And one more Oh Oh part at the end)


Bridge:
 D E F#m F#m D E F#m F#m D E F#m F#m 


Last Chorus:
 F#m D                   
    I'm fairly local, I've been around
 Bm F#m 
    I've seen the streets you're walking down
 F#m A 
    I'm fairly local, good people now
 E F#m 
Oh Oh Oh Oh Oh Oh Ooohh
 D E 
    I'm fairly local, good people now
 F#m 
Oh Oh Oh Oh Oh Oh Ooohh, Good People Now
 D E 
Oh Oh Oh Oh Oh Oh Ooohh, Good People Now
 F#m 
Oh Oh Oh Oh Oh Oh Ooohh.

No Shade In The Shadow Of The Cross Tabs – Sufjan Stevens V3

 ---------------------------------------------------------------------------
           Sufjan Stevens - No Shade in the Shadow of the Cross
---------------------------------------------------------------------------

Based on a live performance

Standard tuning, capo on 4

Picking pattern is quite basic. In order of string thickness (low to high): 1 3 2 4.
There are some variations though, but this is a starting point.

[fade-in intro]
e|----------------------|
B|----------------------|
G|-2------2------2------|
D|-0------2------2------|
A|-0-[x2]-0-[x4]-0-[x4]-|
E|-2------0------3------|
 
'Now that I fell...'
e|-------------------------------------------|
B|-3-------3-------3--------2--------2-------|
G|-2-------2-------2--------2--------2-------|
D|-4--[x4]-4--[x2]-4--[x2]--2--[x4]--2--[x4]-|
A|-0-------2----------------0----------------|
E|-----------------2-----------------3-------|

'My only lover...'
e|-------------------------------------------|
B|-------------------------------------------|
G|-7------7------4------2------2------2------|
D|-5------4------2------0------2------2------|
A|-5-[x4]-0-[x2]-0-[x2]-0-[x2]-0-[x4]-0-[x4]-|
E|-7------5------3------2------0------3------|

Repeat last two bars of chords, then

  'oeeee'
e|-------------------------------------------|
B|-3-----------------------------------------|
G|-2------2------4------0------2------2------|
D|-4-[x2]-4------5------4------2------2------|
A|-2------4-[x2]-5-[x2]-5-[x2]-0-[x4]-0-[x4]-|
E|--------2------3------5------0------3------|

Repeat this thing again (so the two verse bars
two times, then that choir thing)
Then we arrive at the 'there's blood on that 
blade'-part, which just repeat those two bars
of the verse again.

Tears In Heaven Acoustic Tabs – Eric Clapton V3

 This is an arrangement of Tears in Heaven by H. des Bouvrie. It's slightly different from the original
version, but it might be fun to try!

h: hammer on
p: pull off
\: slide down


e||--------------------|----------------0-----0-----|-------7\5--------------|------------------------|
B||--------------------|-------2h3p2-------------2--|-------7\5--7\5----2----|-3-----3-----3-----3----|
G||--------------------|----2--------2--------------|------------6\4----2----|-2-----2-----2-----1----|
D||--------------------|-------------------2--------|------------------------|------------------------|
A||--------------------|-0--------------------------|------------------------|------------------------|
E||----------------0h2-|----------------4--------2--|----2-------0---------0-|-2--2-----2--0--0-----0-|


--------------------------|----------------0-----0-----|------------------------|----------0-------------|
-2-----2-----2-----2------|-------2h3p2-------------2--|-------2-----2-----2----|-3-----3-----2--0-------|
-2-----2-----2-----2------|----2--------2--------------|-------2-----2-----2----|-2-----2-----2-----2----|
--------------------------|-------------------2--------|------------------------|------------------------|
-0--0-----0--0--0--0------|-0--------------------------|------------------------|------------------------|
----------------------0h2-|----------------4--------2--|----2-----2--0--0-----0-|-2--2--2-----0--------0-|


------------------------|----------------0-----0-----|-------7\5--------------|----------0-------------|
-0-----0-----2-----3----|-2-----2h3p2-------------2--|-------7\5--7\5----2----|-3-----3-----2--0-------|
-1-----1-----2-----4----|-2-----------2--------------|------------6\4----2----|-2-----2-----2-----2----|
------------------------|-------------------2--------|------------------------|------------------------|
------------------------|-0--0-----------------------|------------------------|------------------------|
-0--0-----0-----0-----0-|----------------4--------2--|----2-------0---------0-|-2--2--2-----0--------0-|


------------------------|------------------------|------------------------|------------------------|
-0-----0-----2-----3----|-------2--------2-----2-|-------2--------2-----2-|-------2--------2-----2-|
-1-----1-----2-----4----|----2-----2-----2-------|----1-----1-----1-------|----0-----0-----0-------|
------------------------|------------------------|------------------------|------------------------|
------------------------|------------------------|------------------------|------------------------|
-0--0-----0-----0-----0-|-2-----------2-----2----|-1-----------1-----1----|-0-----------0-----0----|


---------------------|--------------------------|------------------0--|----------------0-----0-----|
-------2-----0----2--|--------3-----------------|----3--3-----3----3--|-------2h3p2-------------2--|
----3-----3----------|-----------4------4--4--2-|----2--2-----2----1--|-----2-------2--------------|
---------------------|-----4------------4-------|----2--2-----2-------|-------------------2--------|
------------------1--|--2-----------2-----------|---------------------|--0-------------------------|
-2-----------4-------|--------------------------|-2--------2----------|----------------4--------2--|


-------7\5--------------|------------------------|--------------------------|----------------0-----0-----|
-------7\5--7\5----2----|-3-----3-----3-----3----|-2-----2-----2-----2------|-------2h3p2-------------2--|
------------6\4----2----|-2-----2-----2-----1----|-2-----2-----2-----2------|----2--------2--------------|
------------------------|------------------------|--------------------------|-------------------2--------|
------------------------|------------------------|-0--0-----0--0--0--0------|-0--------------------------|
----2-------0---------0-|-2--2-----2--0--0-----0-|----------------------0h2-|----------------4--------2--|


------------------------|----------0------------

Us Tabs – Regina Spektor V3

 -------------------------------------------------------------------------------
                             US - Regina Spektor
-------------------------------------------------------------------------------
LOVE. THIS. SONG. 
Basically, I've done the chords for this, and the tab is something of a variation. 

I play this on the piano and it sounds almost the same 
Only difference is you can't get a guitar sound on a piano... :(

Tuning: EADGBe (Capo on ONE)

!!!
The ~ symbol just means to ensure the note is HELD ON throughout the bar - it's the bass note.

Intro (Either do this twice or once and a half if you're doing the music video version)
  C                  F/C               C                F/C
e -----------------|-----------------|-----------------|-----------------|
B -----------------|-----------------|-----------------|-----------------|
G -----0---0---0---|-----2---2---2---|-----0---0---0---|-----2---2---2---|
D ---2---2---2---2-|---3---3---3---3-|---2---2---2---2-|---3---3---3---3-|
A -3~~~~~~~~~~~~~~~|-3~~~~~~~~~~~3~~~|-3~~~~~~~~~~~~~~~|-3~~~~~~~~~~~~~~~|
E -----------------|-----------------|-----------------|-----------------|

This bit's almost the same as another one, but it changes later on!

Verse
   They made a         sta-tue of us
  C                  F/C               C                F/C
e -----------------|-----------------|-----------------|-----------------|
B -----------------|-----------------|-----------------|-----------------|
G -----0---0---0---|-----2---2---2---|-----0---0---0---|-----2---2---2---|
D ---2---2---2---2-|---3---3---3---3-|---2---2---2---2-|---3---3---3---3-|
A -3~~~~~~~~~~~~~~~|-3~~~~~~~~~~~~~~~|-3~~~~~~~~~~~~~~~|-3~~~~~~~~~~~~~~~|
E -----------------|-----------------|-----------------|-----------------|

    And put it      on a mountain top
  C                  F/C               C                F/C
e -----------------|-----------------|-----------------|-----------------|
B -----------------|-----------------|-----------------|-----------------|
G -----0---0---0---|-----2---2---2---|-----0---0---0---|-----2---2---2---|
D ---2---2---2---2-|---3---3---3---3-|---2---2---2---2-|---3---3---3---3-|
A -3~~~~~~~~~~~~~~~|-3~~~~~~~~~~~~~~~|-3~~~~~~~~~~~~~~~|-3~~~~~~~~~~~~~~~|
E -----------------|-----------------|-----------------|-----------------|

  Now tourists     come and stare at us                          Blow
  C                  F/C               C                F/C
e -----------------|-----------------|-----------------|-----------------|
B -----------------|-----------------|-----------------|-----------------|
G -----0---0---0---|-----2---2---2---|-----0---0---0---|-----2---2---2---|
D ---2---2---2---2-|---3---3---3---3-|---2---2---2---2-|---3---3---3---3-|
A -3~~~~~~~~~~~~~~~|-3~~~~~~~~~~~~~~~|-3~~~~~~~~~~~~~~~|-3~~~~~~~~~~~~~~~|
E -----------------|-----------------|-----------------|-----------------|

bubbles with their gum          take photographs have fun,    have fun
  C                  F/C               C                F/C
e -----------------|-----------------|-----------------|-----------------|
B -----------------|-----------------|-----------------|-----------------|
G -----0---0---0---|-----2---2---2---|-----0---0---0---|-----2---2---2---|
D ---2---2---2---2-|---3---3---3---3-|---2---2---2---2-|---3---3---3---3-|
A -3~~~~~~~~~~~~~~~|-3~~~~~~~~~~~~~~~|-3~~~~~~~~~~~~~~~|-3~~~~~~~~~~~~~~~|
E -----------------|-----------------|-----------------|-----------------|

(Instrumental)
  C                  F/C               C                F/C
e -----------------|-----------------|-----------------|-----------------|
B -----------------|-----------------|-----------------|-----------------|
G -----0---0---0---|-----2---2---2---|-----0---0---0---|-----2---2---2---|
D ---2---2---2---2-|---3---3---3---3-|---2---2---2---2-|---3---3---3---3-|
A -3~~~~~~~~~~~~~~~|-3~~~~~~~~~~~3~3~|-3~~~~~~~~~~~~~~~|-3~~~~~~~~~~~3~~~|
E -----------------|-----------------|-----

All I Ask chords – Adele V3

 hi guys! just want to share this masterpiece with you.
any contributions and suggestions would be highly appreciated!

chords with * are optional


intro
 E G#m A B E G#m 
I will leave my heart at the door
          A B 
I won't say a word, they've all been said before, you know
     E G#m 
So why don't we just play pretend
                  A B G# *
Like we're not scared of what is coming next or scared of having nothing left

        C#m 
Look, don't get me wrong
    B F#m 
I know there is no tomorrow
  B 
All I ask is


[CHORUS]
 E C#m F#m 
If this is my last night with you
 B Eb *     E 
Hold me like I'm more than just a friend
            C#m F#m 
Give me a memory I can use
 B Eb *      E Eb C#m 
Take me by the hand while we do what lovers do
                     F#m 
It matters how this ends
         B E G#m A B  
'Cause what if I never love again?

 E G#m 
I don't need your honesty
               A B 
It's already in your eyes and I'm sure my eyes, they speak for me
 E G#m 
No one knows me like you do
                      A 
And since you're the only one that matters
          B G# 
Tell me who do I run to?

        C#m 
Look, don't get me wrong
    B F#m 
I know there is no tomorrow
  B 
All I ask is


[CHORUS]
 E C#m F#m 
If this is my last night with you
 B Em *      Eb E 
Hold me like I'm more than just a friend
            C#m F#m 
Give me a memory I can use
 B Eb E Eb C#m 
Take me by the hand while we do what lovers do
                     F#m 
It matters how this ends
        B D 
Cause what if I never love again?

                  A G# *   F#m 
Let this be our lesson in love
                  B A *     G#m 
Let this be the way we remember us
                   G# C#m 
I don't wanna be cruel or vicious
                F#m 
And I ain't asking for forgiveness
 B 
All I ask is


[CHORUS]
 F Dm Gm 
If this is my last night with you
 C F 
Hold me like I'm more than just a friend
           Dm Gm 
Give me a memory I can use
 C                      Em*     F Em Dm 
Take me by the hand while we do what lovers do
                     Gm 
It matters how this ends
 C F 
What if I never love again?

Dont Stop chords – Fleetwood Mac V3

 Don't Stop - Fleetwood Mac (Christine McVie, 1976)
Chorded By: Skidaddy, Esq., G.Q.

4/4 TIME @ 118 BPM (3 Min. 20 Sec.) in 'E'.

Chords Used:
-----------
             GUITAR              KEYBOARD
         E A D G B   e     Bass|   Chord
       ------------------    ----------------
E    -  0  2  2  1  0  0      E    B-E-G#
A/E  -  0  0  2  2  2  0      E    A-C#-E     -OR-
     -  x  x  2  2  2  0
D    -  x  x  0  2  3  2      D    A-D-F#
A    -  x  0  2  2  2  0      A    A-C#-E
B7   -  x  2  1  2  0  2      B    B-D#-F#-A  -OR-  
     -  x  2  4  2  4  2
D/E  -  0  0  0  2  3  2      E    A-D-F#     -OR-
     -  x  x  2  2  3  2
NC   -  NO CHORD

INTRO: [8 Measures]
-----

 1 2+3 4 …
| E A/E   | E A/E   | E A/E   | E A/E   | E A/E   | E A/E   | E A/E   | E A/E   |

VERSE #1: [8 M]
--------

| E D             | A                       | E D              |
  If you wake… up… and don't want to smile…      If… it takes… just… a

| A                   | E D          | A                    |
 lit-tle while,…       o-pen your eyes…  and look at the day…

| B7                        |…                  |
 You'll… see… things… in a dif-f'rent… way…

CHORUS #1: [12 M]
---------

| E D/E     | A                               | E D/E     |
 Don't…   stop…   think-in' a-bout… to-mor-… row… Don't…   stop…

| A                       | E D/E      | A                        |
 it-'ll soon… be here…     It-'ll be here,…   bet-ter than be-fore…

| B7                            |…                  |
 Yes-… ter-day's gone,…   yes-… ter-day's gone…

| E D/E   | A        | E D/E   | A        |

VERSE #2: [8 M]
--------

| E D              | A                   | E D           |
  Why not… think… a-bout… times… to come,…     and not a-bout…   the

| A                           | E D          | A                |
 things that you've… done…     If… your life… was… bad… to you,…

| B7                      |…                  |
   just… think… what… to-mor-… row will do…

CHORUS #2: [10 M]
---------

| E D/E     | A                               | E D/E     |
 Don't…   stop…   think-in' a-bout… to-mor-… row… Don't…   stop…

| A                       | E D/E      | A                        |
 it-'ll soon… be here…     It-'ll be here,…   bet-ter than be-fore…

| B7                            |…                  |…       |…       |
 Yes-… ter-day's gone,…   yes-… ter-day's gone…

GUITAR SOLO: [10 M]
-----------

| E D    | A        | E D    | A        | E D    | A        |


| B7       |…       |…       |…       |

VERSE #3: [8 M]
--------

| E D        | A                   | E D            |
  All I want… is… to see you… smile…      If… it takes… just…

| A                    | E D          | A                        |
 a lit-tle while…      I know you don't…  be-lieve that it's true…

| B7                    |…               |
  I nev

Twos Up Tabs – AC/DC V3

 -------------------------------------------------------------------------------
                             Twos Up - AC/DC
-------------------------------------------------------------------------------
: jothunder

Tuning: Standard

Disclaimer: This tab does not contain the guitar solo!

-------------------------------------------------------------------------------
    LEAD GUITAR

INTRO

e|-----------------------------------------------------------------|
B|-----4-----3-----4-----4-----3-------4-----3-----4-----4-----3---|
G|-5---3-----3-----3-----3-----3---3---3-----3-----3-----3-----3---|
D|-5-------------------------------3-------------------------------|
A|-3-------------------------------1-------------------------------|
E|-----------------------------------------------------------------|

e|-----------------------------------------------------------------|
B|-----4-----3---------4-----3---------4-----3---------4-----3-----|
G|-----3-----3---------3-----3---------3-----3---------3-----3-----|
D|-3---------------5---------------6---------------8---------------|
A|-3---------------5---------------6---------------8---------------|
E|-1---------------3---------------4---------------6---------------|

e|-8-8-8-8-8-8-8-8-8-8-8-8-6-6-5-5-|
B|-8-8-8-8-8-8-8-8-8-8-8-8-6-6-6-6-|
G|-5-5-5-5-5-5-5-5-5-5-5-5-5-5-5-5-| Play
D|---------------------------------|  3x
A|---------------------------------|
E|---------------------------------|

e|-----------------------------------------|
B|-----4-----4-----4-----4-------3---------|
G|-----------------------------------------|
D|---5-----5-----5-----5-------5-----------|
A|-3-----3-----3-----3-------5-------------|
E|-------------------------3---------------|

e|-----------------------------------------------------------------|
B|-----4-----3-----4-----4-----3-------4-----3-----4-----4-----3---|
G|-5---3-----3-----3-----3-----3---3---3-----3-----3-----3-----3---|
D|-5-------------------------------3-------------------------------|
A|-3-------------------------------1-------------------------------|
E|-----------------------------------------------------------------|

e|-----------------------------------------------------------------|
B|-----4-----3---------4-----3---------4-----3---------4-----3-----|
G|-----3-----3---------3-----3---------3-----3---------3-----3-----|
D|-3---------------5---------------6---------------8---------------|
A|-3---------------5---------------6---------------8---------------|
E|-1---------------3---------------4---------------6---------------|


e|---------------------------------|
B|---------------------------------|
G|-5-5-5-5-5-5-5-5-5-5-5-5-3-3-2-2-| Play
D|-5-5-5-5-5-5-5-5-5-5-5-5-3-3-3-3-|  2x
A|-3-3-3-3-3-3-3-3-3-3-3-3-1-1-3-3-|
E|---------------------------------|


VERSE

e|------------------------------------------------------------------|
B|------------------------------------------------------------------|
G|-5\---x---------------------------------------------8-x---x-8-x---|
D|-5\---x---x-3-x-5-x---x---x-5-x-6-x---x---x-6-x-8-x-8-x---x-8-x---|
A|-3\---x---x-3-x-5-x---x---x-5-x-6-x---x---x-6-x-8-x-6-x---x-6-x---|
E|----------x-1-x-3-x---x---x-3-x-4-x---x---x-4-x-6-x---------------|

e|-------------------------------------------------------------------|
B|-------------------------------------------------------------------|
G|-5\---x------------------------------------------------------------|
D|-5\---x---x-3-x-5-x---x---x-5-x-6-x---x---x-6-x-8-x----------------|
A|-3\---x---x-3-x-5-x---x---x-5-x-6-x---x---x-6-x-8-x---------8-6----|
E|----------x-1-x-3-x---x---x-3-x-4-x---x---x-4-x-6-x-6-8-6-8--------|

e|------------------------------------------------------------------|
B|------------------------------------------------------------------|
G|-5\---x---------------------------------------------8-x---x-8-x---|
D|-5\---x---x-3-x-5-x---x---x-5-x-6-x---x---x-6-x-8-x-8-x---x-8-x---|
A|-3\---x---x-3-x-5-x---x---x-5-x-6-x---x---x-6-x-8-x-6

Stealing Tomorrow chords – Great Lake Swimmers V3

 (Adapted from Version 1)

D TUNING - D A F C G D (Full step down from Standard Tuning)

The Cadd9 and Gadd9 are little aesthetic climbs that mimic of the bass line. I didn't add them throughout 
the song, even though they appear throughout. Ignore them if you'd like.
Spelling variations (typos) are deliberate; they help to match the vocal timing to the guitar.


Intro V1 -  F  ,  C  ,  C Cadd9 C  ,  G  ,  G  ,  G Gadd9 G                   
Intro V2 -  F  ,  C  ,  G  ,  G C Dm Am E 
     Is this place shaking or is it me?
           F C F C 
Why can’t I feel mean without you and everything become more true
               F C 
the more that I bee-lieve in you
            G G Gadd9 G 
stealing tomorrow?

         C Dm Am E 
I don’t care what you think, gonna take it away
            F C 
while I am stealing tomorrow from today.
            F C 
Stealing tomorrow from today.
            F C 
Stealing tomorrow from today.
          G G Gadd9 G 
Take it away.

       C Dm Am E      
And I built this wall around me. I refuse to let anyone through.
    F C 
Oh no, not even you. Oh, no,
 F C 
no, not even you. Oh, no, no,
 F C C Cadd9 C G 
no, not even you.

          C Dm Am E  
And it’s like someone else is driving, like this body isn’t mine.
            F C       
Changed myself w'thout even telling you
          F C    
or even asking. I need relief
                    F C 
‘cause I can’t be sober and win you over.
           F 
Relate my temperature.
             C 
Have to get out of here.
          F C 
And you don’t even know half of it.
          F C 
I cannot turn-it-off, I don’t have a switch for that.
               F C  
Haven’t crash landed yet, haven’t crash landed yet.

 C Cadd9 C F C 
Stealing tomorrow from today (x3)

 C Cadd9 C F C C Cadd9 C F F    (softly ring out)

Medicine Hat chords – Pond V3

 
Play all chords as bar chords.

Intro

 Em Bm C G G D          (C)  G C G Em Bm C G 
Been walking in circles so long
 G D               (C)  G C G Em Bm C D 
My head is spinning, direction’s gone
 D Em C G C G Em Bm C G 
The night is darkest just before the dawn
 G D                      (C)  G  
So goodbye, my friend, it’s time to move on

 C G 
Taking some time
 C G 
To clear out my mind
 C D Em Bm C G 
Change up the light

 G D         (C)    G C G Em Bm C G 
Oh, why did I leave it so long?

 G D              (C)    G C G Em Bm C D 
Drawn in and caught up in the drone
 D Em C G C G Em Bm C G 
I guess I’m saying that this alibi was wrong
 G D                (C)  G 
Remembering is hardest when you’re alone

 C G 
Broken and cold
 C G 
Stuck on a map
 C D Bm Am 
Well on my way to Medicine Hat

 Am D Em C G Bm  (repeat till end)


I Found chords – Amber Run V3

 ****Capo on The 3rd Fret****


 Em Em/D C 
I'll use you as a warning sign
             Am C Em 
That if you talk enough sense then you'll lose your mind

 Em Em/D C 
And I'll use you as a focal point
      Am C Em 
So i don't lose sight of what I want

 Em Em/D C 
And I moved further than I thought I could
       Am C Em 
But I miss you more than I thought I would

 Em Em/D C 
I'll use you as a warning sign
             Am C Em 
That if you talk enough sense then you'll lose your mind

 C Em Em/D C 
Oh cause i found love where it wasn't supposed to be
 Am C 
Right in front of me
 Em Em/D 
Talk some sense to me

 C Em Em/D C 
Oh I found love where it wasn't supposed to be
 Am C 
Right in front of me
 Em Em/D 
Talk some sense to me

 Em Em/D C 
And I'll use you as a makeshift gauge
    Am C Em 
Of how much to give and how much to take

 Em Em/D C 
I'll use you as a warning sign
             Am C Em 
That if you talk enough sense then you'll lose your mind

 C Em Em/D C 
Oh cause i found love where it wasn't supposed to be
 Am C 
Right in front of me
 Em Em/D 
Talk some sense to me

 C Em Em/D C 
Oh I found love where it wasn't supposed to be
 Am C 
Right in front of me
 Em Em/D 
Talk some sense to me

Sick Of Losing Soulmates Tabs – Doddleoddle V3

 Sick Of Losing Soulmates - Dodie Clark
: Daniel O'Brien

hey :) this is my first tab.  im basing this off of dodies tutorial video, for those of you who found the video
confusing.

tuning is in standard (eadgbe)

---------------------------------------------------------------------------------------------------------------

VERSE1

this is played throughout the verse.  

E|-------------------------------------------------------|
B|-------------------------------------------------------|
G|-------------------------------------------------------|
D|-------0--0--0--0--0--0--0--0--0--0--0--0--0--0--0--0--|
A|-------------------------------------------------------|
E|-----5--5--5--5--7--7--7--7--2--2--2--2--3--3--3--3----|


PRE CHORUS2

this is played when you would sing "what the hell would i be, without you" and "brave face talk so lightly,
hide the truth"

E|-------------------------------------------------------|
B|-------------------------------------------------------|
G|-------------------------------------------------------|
D|-------0--0--0--0--0--0--0--0--0--0--0--0--0--0--0--0--|
A|-------------------------------------------------------|
E|-----7--7--5--5--9--9--2--2--3--3--3--3--3--3--3--3----|


CHORUS3

this is played when the "now im sick of losing soulmates..." would be sung.

E|---------------------------------------------------------------------------------------------------|
B|---------------------------------------------------------------------------------------------------|
G|---------------------------------------------------------------------------------------------------|
D|-------0--0--0--0--0--0--0--0--0--0--0--0--0--0--0--0--0--0--0--0--0--0--0--0--0--0--0--0--0--0--0-|
A|---------------------------------------------------------------------------------------------------|
E|-----2--2--3--3--3--3--3--3--5--5--7--7--7--7--7--7--7--7--6--6--6--6--1--1--1--1--5--5--5--5--5--5|

LYRICS

1=verse, 2=prechorus, 3=chorus

1
what a strange being you are
god knows where I would be 
if you hadn’t found me 
sitting all alone in the dark

1
A dumb screenshot of youth
watch how a cold broken teen
will desperately lean on a superglued human of proof

2
what the hell would I be
without you

2
brave face talk so lightly 
hide the truth

3
now I’m sick of losing soul mates
so where do we begin
I can finally see
you’re as fucked up as me
so how do we win? 

3
I’m sick of losing soul mates
won’t be alone again
I can finally see
you’re as fucked up as me
so how do we win? 

1
We will grow old as friends
I’ve promised that before
so what’s one more?
in our grey haired circle waiting for the end

1
time and hearts will wear us thin
so which path will you take
cause we both know a break
does exactly what it says on the tin

2
what the hell would I be
without you

2
brave face talk so lightly 
hide the truth

3
now I’m sick of losing soul mates
so where do we begin
I can finally see
you’re as fucked up as me
so how do we win? 

3
I’m sick of losing soul mates
won’t be alone again
I can finally see
you’re as fucked up as me
so how do we win?

I won’t take no for an answer

Dignity chords – Bob Dylan V3

 Song:      Dignity (Alternative Version)
Artist:    Bob Dylan
     Dylan - Deluxe Version (CD 3), 2007
URL:       https://vimeo.com/63527603;
           https://www.bobdylan.com/us/music/dylan
Tempo:     4|4
Style:     Story-telling Rolling Melodic Blues
Tuning:    Standard

Capo 1

Chords:                         (Morphed Chords)
           EADGBe               EADGBe
D          XX0232      D3add4   XX0032
 G           320003       G6        320000
 A           X02220       A11       X00020
 Em          022000       Em7       020000


INTRO:(Bass, Drums & Lead over)
| D G D | D G D |


VERSE 1:
 D                                   
Fat man lookin’ in a blade of steel,
 D 
Thin man lookin’ at his last meal.
 G D 
Hollow man lookin’ in a cottonfield,
             G D 
For dignity.


VERSE 2:
 D 
Wise man lookin’ in a blade of grass,
 D 
Young man lookin’ in the shadows that pass.
 G D 
Poor man lookin’ through painted glass,
             A D 
For dignity.


CHORUS 1:
 A 
Somebody got murdered on New Year’s Eve,
 G D 
Somebody said dignity was the first to leave.
 G D 
I went into the city, went into the town,
 Em A A D 
Went into the land of the midnight sun.


VERSE 3:
 D 
Searchin’ high, searchin’ low,

Searchin’ everywhere I know.
 G D 
Askin’ the cops wherever I go,
                        G D 
Have you seen dignity?


VERSE 4:
 D 
Blind man breakin’ out of a trance,
 D 
Puts both his hands in the pockets of chance.
 G D 
Hopin’ to find one circumstance,
            G D 
Of dignity.


VERSE 5:
 D 
I went to the wedding of Mary Lou,
 D 
She said, “I don’t want nobody see me talkin’ to you”.
 G D 
Said she could get killed if she told me what she knew,
               G D 
About dignity.


CHORUS 2:
 A 
I went down where the vultures feed,
 G D 
I would’ve gone deeper, but there wasn’t any need.
 G D 
Heard the tongues of angels and the tongues of men,
 Em A A D 
Wasn’t any difference to me.


VERSE 6:
 D G 
Chilly wind sharp as a razor blade,
 D 
House on fire, debts unpaid.
 G D 
Gonna stand at the window, gonna ask the maid
                        G D 
Have you seen dignity?


BRIDGE 1:
| D G D | D G D |


VERSE 7:
 D 
Drinkin’ man listens to the voice he hears,
 D 
In a crowded room full of covered-up mirrors.
 G D 
Lookin’ into the lost forgotten years,
             G D 
For dignity.


VERSE 8:
 D 
Met Prince Phillip at the home of the blues,
 D 
Said he’d give me information if his name wasn’t used.
 G D 
He wanted money up front, said he was abused.
            G D 
By dignity.


CHORUS 3
 A 
Footprints runnin’ ’cross the silver sand,
 G D 
Steps goin’ down into tattoo land.
 G D 
I met the sons of darkness and the sons of light,
 Em A A D 
In the bordertowns of despair.


VERSE 9:
 D 
Got no place to fade, 

Dont Take Your Guns To Town chords – Johnny Cash V3

 G 
A young cowboy named Billy Joe

      D7 G 
Grew restless on the farm

        
A boy filled with wanderlust

     D7 G 
Who really meant no harm

    C 
He changed his clothes and shined his boots

 
And combed his dark hair down

         G 
And his mother cried as he walked out

 
       C G 
Don't Take Your Guns To Town son

 C G 
Leave your guns at home Bill

       C G 
Don't Take Your Guns To Town

 
        C G 
Don't Take Your Guns To Town son

 C G 
Leave your guns at home Bill

       C G 
Don't Take Your Guns To Town


                                        D7 G 
He laughed and kissed his mom and said your Billy Joe's a man

                                      D7 G 
I can shoot as quick and straight as anybody can

         C 
But I'd wouldn't shoot without a cause 

                      G 
I'd gun nobody down  but she cried again as he rode away

 
        C G 
Don't Take Your Guns To Town son

 C G 
Leave your guns at home Bill

       C G 
Don't Take Your Guns To Town


                                  D7 G 
He sang a song as on he rode his guns hung at his hips

                              D7 G 
He rode into a cattle town a smile upon his lips

    C 
He stopped and walked into a bar and laid his money down

         G 
But his mother's words echoed again

 
       C G 
Don't Take Your Guns To Town son

 C G 
Leave your guns at home Bill

       C G 
Don't Take Your Guns To Town


                                          D7 G 
He drank his first strong liquor then to calm his shaking hand

                                      D7 G 
And tried to tell himself at last he had become a man

   C 
A dusty cowpoke at his side began to laugh him down

        G 
And he heard again his mother's words

 
        C G 
Don't Take Your Guns To Town son

 C G 
Leave your guns at home Bill

       C G 
Don't Take Your Guns To Town


                                      D7 G 
Bill was raged and Billy Joe reached for his gun to draw

                                         D7 G 
But the stranger drew his gun and fired before he even saw

    C 
As Billy Joe fell to the floor the crowd all gathered around

     G 
And wondered at his final words

Rest Your Love chords – The Vamps V3

 Standard Tuning
No capo

Verse 1: 

(Am G C)x4

 Am G C 
I see you move, and I do understand 
 Am G C 
Why you get attention
 Am G C 
And I hear you talk, but I don't comprehend 
 Am G C 
Why I get no mention


Pre-Chorus:

         Am G C 
And you know, you know where to find me
          Am G C 
Yeah you know where to go when you're looking for love
         Am G C    
And you know, you know where I'm hiding
          Am G C           
Yeah you know,    Yeah you know


Chorus:

          Am  *            F  *                       C  *
When the stars go out, you can rest your love on me
              Am  *                   F  *                        C  *
And when the world gets loud, baby you can rest your love on me
          Am F C C       
When the stars go out, you can rest your love on me (yeah you can rest your love on me)
              Am F C C 
And when the world gets loud, baby you can rest your love on me (yeah you can rest your love on me)


Verse 2:

 Am G C Am G C 
I used to try to get into your space
 Am G C 
Then I learnt my lesson
 Am G C 
I saw the time as it turned into days
 Am C G 
You need some rejection


Pre-Chorus:

         Am G C 
And you know, you know where to find me
          Am G C 
Yeah you know where to go when you're looking for love
         Am G C    
And you know, you know where I'm hiding
          Am G C           
Yeah you know,    Yeah you know


Chorus:

          Am  *            F  *                       C  *
When the stars go out, you can rest your love on me
              Am  *                   F  *                        C  *
And when the world gets loud, baby you can rest your love on me
          Am F C C       
When the stars go out, you can rest your love on me (yeah you can rest your love on me)
              Am F C C 
And when the world gets loud, baby you can rest your love on me (yeah you can rest your love on me)


 Am F C 
Oh oh oh oh oh oh oh oh oh oh oh oh oh oh (yeah you can rest your love on me)
 Am F C 
Oh oh oh oh oh oh oh oh oh oh oh oh oh oh (yeah you can rest your love on me)


Bridge:

         Am G C 
And you know, you know where to find me
          Am G C 
Yeah you know where to go when you're looking for love
         Am G C    
And you know, you know where I'm hiding
          Am G C           
Yeah you know,    Yeah you know

               Am  *            F  *                       C  *
That when the stars go out, you can rest your love on me


Chorus: 

         Am F C C       
When the stars go out, you can rest your love on me (yeah you can rest your love on me)
              Am F <spa

Waves chords – The Dear Hunter V3

 Key: Eb


*You can play this easier by using Capo 3 and transposing these chords down 3 steps.



 Eb Cm G#  x2



 Eb Cm   
  I thought that I knew love
 G# Eb Bb G# 
  But it was just a wave crashing over us
 Cm Eb 
  And in the breaths between the ones we meant to breathe
          Bb G# 
I had my head under my feet

You knew the way things were
                      
You knew the way they would be
 G# Cm 
We knew exactly how it'd end



 Cm Eb G# Cm Eb 
  Strays on a stale sea
                           Bb G# 
Oh anchor the engine to a canyon far beneath
 Cm Eb 
  Water rushed up from the boards below
                          Bb G# 
So I started slicking my hair with the kerosene

You knew the way things were
                      
You knew the way they would be
                          Eb 
We knew exactly how it'd end




 Eb Cm 
  And I'm preparing for a burial at sea
     G# Bb    
But I can see the lighthouse
 Eb Cm 
  Yet I'm praying that these waters don't take me
       G# Bb Cm 
Cause I can see the lighthouse




 Cm Eb G#  x2




 Fm 
I was screaming that the ship was sinking
     Cm 
But you were telling me to just keep drinking
 Bb 
Corded in the parts again
 G# 
Arms and legs at the bottom of the ocean
 Fm 
And the thing that made it so much harder
 Cm 
Was the fact that you were someone's daughter
 G# 
I knew the way things were

I knew the way they would be
                         Eb 
I knew exactly how it'd end



 Eb Cm 
  And I'm preparing for a burial at sea
     G# Bb    
But I can see the lighthouse
 Eb Cm 
  Yet I'm praying that these waters don't take me
       G# Bb Cm 
Cause I can see the lighthouse



 Eb Cm   
  I thought that I knew love
 G# Eb Bb G# 
  But it was just a wave crashing over us

Everything Stays chords – Rebecca Sugar V3

 Rebecca Sugar - Everything Stays

Featured in Adventure Time S07 E13 "The Dark Cloud"


I took the song's performance with ukulele (link below) and tabbed it for guitar.


Standard tuning, tempo around 130


Intro:  G C G C 


Verse:
 G C 
Let’s go to the garden
 G B 
You’ll find something waiting
 Em C 
Right there where you left it
 G D 
Lying upside down

 G C 
When you finally find it
 G B 
You’ll see how it’s faded
     Em C                                      
The underside is lighter 
          G D 
When you turn it around
        

Chorus: 
( D )         Am  
Everything stays 
( Am )             Em        
Right where you left it
( Em )         D 
Everything stays
 H EM 
But it still changes
 G C 
Ever so slightly
 Cm G 
Daily and nightly
( G )        D 
In little ways
     ( D )         G C G C 
When everything stays


After this play Verse *2 over Verse melody w/ Lah-Di-Dahs:
( G C  /  G H  /  Em C  /  G D ) *2


Chorus2:
( D )         Am  
Everything stays 
( Am )             Em     
Right where you left it
( E m)         D 
Everything stays
 H Em 
But it still changes
 G C 
Ever so slightly
 Cm G 
Daily and nightly
( G )        D 
In little ways
     ( D )         G       
When everything stays
( G )       C 
Ever so slightly
 Cm G 
Daily and nightly
( G )        D 
In little ways
     ( D )         G C G C 
When everything stays

Cake chords – Melanie Martinez V3

 The other tabs were either incorrect or hard to play along so i made another.
Please correct me if I'm wrong!

xxx
Track: Cake
Artist: Melanie Martinez
  Cry Baby (2015)
xxx

TUNING: Standard
CAPO ON 1ST

CHORDS USED:  Em B C G B7 

----------------------------------------------------------

INTRO:  Em B C G  (x2)


VERSE I:
      Em B 
Your skin is warm like an oven
      C G 
Your kiss is sugary sweet
      Em B 
Your fingers feel like cotton
          C G 
When you put your arms around me
    Em B 
It feels like I'm just missing
 C G 
Something whenever you leave
       Em B 
We've got all the ingredients
   C G 
Except you loving me
 C B 
 And respectfully


CHORUS:
 Em B C 
I'm not a piece of cake
     G Em 
For you to just discard
           B C 
While you walk away
          G Em 
With the frosting of my heart
     B C 
So I'm taking back
        G 
What's mine, you'll miss
     Em 
The slice of heaven that
   B C G 
I gave to you last night


VERSE II:
     Em B 
You smell just like vanilla
     C G 
You taste like buttercream
        Em B 
You're filling up my senses
      C G 
With empty calories
    Em B 
It feels like I'm just missing
 C G 
Something whenever you leave
       Em B 
We've got all the ingredients
 C G 
Except you needing me
 C B 
 And respectfully


CHORUS:
 Em B C 
I'm not a piece of cake
     G Em 
For you to just discard
           B C 
While you walk away
          G Em 
With the frosting of my heart
     B C 
So I'm taking back
        G 
What's mine, you'll miss
     Em 
The slice of heaven that
   B C G 
I gave to you last night


BRIDGE: (x2)
    C 
If I am just a piece of cake
             Em 
I am just a piece of cake
       B 
Then, you're just a piece of meat
               B7 
You're just a piece of meat to me


CHORUS:
 Em B C 
I'm not a piece of cake
     G Em 
For you to just discard
           B C 
While you walk away
          G Em 
With the frosting of my heart
     B C 
So I'm taking back
        G 
What's mine, you'll miss
     Em 
The slice of heaven that
   B C G 
I gave to you last night


OUTRO:
     Em B 
The slice of heaven that I gave
     C G 
S-S-Slice of heaven that I gave to you
     Em 
The Slice of heaven
        B 
That I gave to you
            C G 
Last night