Tag: v3

Stadium Arcadium chords – Red Hot Chili Peppers V3

 Stadium Arcadium - Red Hot Chili Peppers

Capo 2

[Intro]

    Em G Em G D 

|---------------------|------------------|-------------------|--3----2--|
|---------------------|-------0------0---|-------------------|--3----3--|
|---------0-------0---|-----0------0-----|--------0------0---|--0----2--|
|-------2-------2-----|---0------0-------|------2------2-----|--0----0--|
|-----2-------2-------|------------------|----2------2-------|--2-------|
|---0-----------------|-3----------------|--0----------------|--3-------|

(Play above once during each verse)

[Verse 1]

Bells around St. Petersburg, when I saw you
I hope I get what you deserve and this is where I find

[Verse 2]

Smoke surrounds your perfect face, and I'm falling
Pushin' a broom out into a space, and this where I find a way

[Chorus] (8 strums each or 16 double time)

     Am C 
The Stadium Arcadium, a mirror to the Moon,(a mirror to the moon)
          G                                     
Well I’m Forming and I’m Warming, (to you) 
    D 
A state of the art until the clouds come crashing
     Am C 
Stranger things have happened both, before and after noon (before and after noon)
          G D 
And I’m forming and I’m warming, (to you) and pushing myself and no I don’t mind askin’ now

[Intro]

[Verse 3] (Main Riff)

Alone inside my forest room, and it's stormin'
I never thought I'd be in bloom, but this is where I start.

[Verse 4] (Main Riff)

Derelict days and the stereo plays, For the all night crowd That it cannot phase, And I'm calling
Tedious weeds that the media breeds, But the animal gets what the animal needs, And I'm sorry

[Chorus]

[Solo] – other tabs have this already

[Intro] – but on the G and D chord “And this is where I find”

[Verse 5]

Rays of dust that wrap around your citizen
Kind enough to disavow and this is where I stand

[Chorus x2]     

How Can It Be chords – Lauren Daigle V3

 Intro:  Cadd9 Em D  (2x)

Verse 1
 Cadd9 D 
   I  am  guilty
 Cadd9 D                 
   Ashamed of what I've done;  what I've become
 Cadd9 D      
   These hands are dirty
 Cadd9 D Cadd9 Em D 
   I dare not lift them up   to the Holy one

Chorus
 G Am 
  You plead my cause -   You right my wrongs
 G/B Cadd9   
  You break my chains -    You overcome
 G Am 
  You gave Your life -   To give me mine
 G/B Cadd9 
  You say that I am free
        D G Am 
   How can it be
               G/B Cadd9  
   How can it be

Verse 2
 Cadd9 D 
  I've been hiding
 Cadd9 D 
  Afraid I've let you down;  inside I doubt
 Cadd9 D 
  That You could love me
 Cadd9 D Cadd9 Em D 
  But in Your eyes there's only grace now

(Chorus)

Bridge
 G/B C D 
  Though I fall, You can make me new
 G/B C D 
  From this death I will rise with You
 G/B C D 
  Oh the grace reaching out for me
 G/B C D G/B C D 
  How can it be     How can it be

Chorus 2
 G Am 
  You plead my cause -   You right my wrongs
 Em D 
  You break my chains -    You overcome
 G Am 
  You gave Your life -   To give me mine
 G/B Cadd9 D 
  You say that I am free
  G Am 
  You plead my cause -   You right my wrongs
 G/B Cadd9   
  You break my chains -    You overcome
 G Am 
  You gave Your life -   To give me mine
 G/B Cadd9 
  You say that I am free
        D G Am 
   How can it be
               G/B Cadd9     
   How can it be

Outro:
 Cadd9 Em D G

Its So Hard To Say Goodbye To Yesterday chords – Jason Mraz V3

 Jason Mraz – It’s So Hard To Say Goodbye To Yesterday

I felt the previous versions were good, but I also felt something was missing. 
So I added Am and changed G#m to G#, also I tried to put the chords in the correct places according to the song


 E B A E 
How do I say good bye to what we had
 A E E B 
The good times that made us laugh outweigh the bad
                E G# C#m B A 
I thought we'd get to see forever but forever's gone away
         E B A Am E 
It's so hard to say goodbye to yesterday

         E B A Am E 
I don't know where this road is going to lead
          A E E B 
All I know is where we've been and what we have been through
       E G# C#m B A 
If we get to see tomorrow, I hope it's worth all the wait
         E B A Am E 
It's so hard to say goodbye to yesterday

 E G#m C#m B A Am 
And I'll take with me the memories to be my sunshine after the rain
          E B A Am E 
It's so hard to say goodbye to yesterday
                          G#m C#m B A Am 
And I'll take with me the memories to be my sunshine after the rain
          E B A Am E 
It's so hard to say goodbye to yesterday
                          B A Am E 
It's so hard to say goodbye to yesterday



Hope you enjoyed it!

Memories Of A Broken Heart Acoustic chords – Crown The Empire V3

 From what I can tell this is the way Crown The Empire plays it in their live acoustic version.
The video can be found here: http://www.youtube.com/watch?v=dkOaQdVD2Yg 

(The  Bridge, "you think this is the end your wrong," part of the song and 3rd chorus after 
aren't actually played in the live acoustic version so that part is up for speculation or can be ignored.)

Standard Tuning
Barre Chords


    Dm F 
As I stare into these ruins made by man
     Gm A# 
I tremble as I realize it's the end
          Dm F 
More and more I wonder what we could have done
     Gm A# 
But instead we wage a war that can't be won
      Gm A# 
Yeah instead we wage a war that can't be won


 Dm F 
I stand on the ash of all I've ever loved
                Gm 
Memories of a broken heart
          A#             
Now I'm alone in the dark.
 Dm F 
I know there's a way out when all hope is gone
                    Gm 
Find your light in a new dawn
                 A# Dm A# 
But there's no way to do this on our own.
 F C 
Whoa


    Dm 
I search for solace in this waste That I once called home
    A# F 
But my attempts of piecing life together leaves me alone
   
I can't repair what's been done
    C 
When the sky is as black as the ground that I walk on
 Dm A# 
And I can't give up on this  (And I can't give up on this)
 F 
I have to wonder what we could have done
 C                  
I have to (fuckin) wonder

       Dm A# 
But instead we wage a war that can't be won
       F C 
But instead we wage a war that can't be won


 Dm F 
I stand on the ash of all I've ever loved
                Gm 
Memories of a broken heart
          A#             
Now I'm alone in the dark.
 Dm F 
I know there's a way out when all hope is gone
                    Gm 
Find your light in a new dawn
                 A# Dm A# 
But there's no way to do this on our own.
 F C 
whoa

(live version ends here on Dm)



 Dm 
You think that this is the end?

You're wrong
 F 
You think that this is the end?

You're wrong
 Gm 
You think that this is the end?

You're wrong
 A#                       
This is the start of a new generation


 Dm F 
I stand on the ash of all I've ever loved
                Gm 
Memories of a broken heart
          A#             
Now I'm alone in the dark.
 Dm F 
I know there's a way out when all hope is gone
                    Gm 
Find your light in a new dawn
                 A# Dm A#  
But there's no way to do this on our own.
 F C 
Whoa
 Dm  
(Strum once)

Polemonium chords – Fewjar V3

 GERMAN:
Anbei nochmal der Link zum „Tutorial“ von Fewjar,
da finden sich die Akkorde nochmal in der
VIDEOBESCHREIBUNG(!) https://www.youtube.com/watch?v=u0N6SP4-Te0
Jeder Akkord, sowie die Namen sind von dem offiziellen Video.

ENGLISH:
For more help here is the „Tutorial“
from Fewjar. Chords and other links are in the DESCRIPTION(!)
 
Every Chord and every name is from the official video.

Verse:

 Em 
 May I be a thought
  Cm7 Asus2 Dsus2 
 Risen from my imagination?
 Em Cm7 
 As the mean against myself
     Asus2 Dsus2 
 As a   definition?
 Em Cm7 
 Even so knowing, that I am I
      Asus2 Dsus2 Em 
 And ever will be    me

 Breathing the air
     Cm7 Asus2 Gm 
 My ancestors breathed?

Prelude Gm Couple Times/Auftakt G-Moll einige Male

Chorus:
               Bm 
 Envision the shape
              Em 
 All you can see is just its scape
  F#m G F#m 
 A       blossom is your ceiling
          Bm 
 The mod thread
                          Em 
 At it’s loots is rising up to your head
  F#m G F#m 
 The   scarp up seems defeating

         Bm Em 
 And it grows. it grows, it grows, it grows, it grows
      F#m G F#m 
 And I       climb, I rise, I mount, I soar, I go up
         Bm Em 
 And it grows, it grows, it grows, it grows, it grows
      F#m G F#m 
 And I       climb, I rise, I mount, I soar, I go up

Interlude while holding the last note (Listen to the song)
Zwischenspiel während der letzten Note (Original anhören)

E, Cm7 (4x) 

Verse:

 Em Cm7 
 But all the same I feel pleased
          Asus2 Dsus2 
 And desolate at  once
 Em Cm7 Asus2 Dsus2 
 Paddling against my own Certainty
 Em 
 Forcing the bale’s larynx

  Cm7 Asus2 Dsus2 
 Down to its feet, cause I’m standing
 Em Cm7 
 On every step in every scion
             Asus2 Gm 
 Within the plant of paradox

No Gm prelude here!
Kein Gm Auftakt hier!0

 Chorus:
               Bm 
 Envision the shape
              Em 
 All you can see is just its scape
  F#m G F#m 
 A       blossom is your ceiling
          Bm 
 The mod thread
                          Em 
 At it’s loots is rising up to your head
  F#m G F#m 
 The   scarp up seems defeating


         Bm Em 
 And it grows. it grows, it grows, it grows, it grows
      F#m G F#m 
 And I       climb, I rise, I mount, I soar, I go up
         Bm Em 
 And it grows, it grows, it grows, it grows, it grows
      F#m G F#m 
 And I       climb, I rise, I mount, I soar, I go up

Outro:

 E ,  Cm7

Vivo Estás chords – Hillsong United V3

 Vivo Estás (Alive) - Hillsong Young and Free

INTRO (2 veces):  C#m  -  E/G#  -  A A    -  C#m   -  B 
I ESTROFA
 C#m E/G# A 
Roto estaba mi corazón
    A C#m B 
Pero tu mano me rescató
 C#m E/G# A 
Del polvo yo volví a nacer
        A C#m B 
La salvación en ti encontré

 C#m E/G# A 
Tu amor no puedo expresar
  A C#m B 
Te seguiré por la eternidad
 C#m E/G# A 
En tu gracia caminaré
  A C#m B 
En libertad siempre viviré

Pre-Coro
 C#m E/G# A 
En ti, en ti, en ti, soy libre
 A C#m B 
Sé exaltado, sé exaltado
 C#m E/G# A 
Tu amor, tu amor, tu amor no se acaba
 A C#m B 
Oh  oh   oh

CORO
           C#m E/G# A 
Tú vivo estás   en    mí
                 A C#m B 
No hay nadie en tu lu - gar
        C#m E/G# A 
Te necesi - to   Dios
          A C#m B 
Eres mi li - ber - tad

INTRO (1 veces):  C#m  -  E/G#  -  A A    -  C#m   -  B 
II ESTROFA
 C#m E/G# A 
Al pasar por la oscuridad
      A C#m B 
Su luz siempre me guiará
 C#m E/G# A 
Mis cadenas Jesús rompió
    A C#m B 
Con su mano me rescató

 C#m E/G# A 
Este mundo terminará
      A C#m B 
Te seguiré hasta el final
 C#m E/G# A 
Haz en mí Dios tu voluntad
       A C#m B 
Venga tu reino a este lugar

Check Yes Or No chords – George Strait V3

 ***Please note that tuning is a FULL step down.  The reason is because I tune a full step down on
my guitars and capo (2) frets up to get back to standard tuning.  This way I can have any tuning I
want without having to literally re-tune every time.  ***


Tuning a full step down on this song gives it a more rich/full sound.  Please enjoy!

Tab by: Seth Beranek


Intro

 G G D D C  (x2)

 G D C 
It started way back in third grade
 G D C 
I used to sit beside Emmylou Hayes
 G D C 
A pink dress, matching bow, and her pony tail
 C D 
She kissed me on the school bus, but told me not to tell.
 

 G D C 
Next day I chased her `round the playground
 G D C 
Across the monkey bars, to the merry go round
 G D C 
and Emmie Lou got caught passing me a note
 C D 
Before the teacher took it, I read what she wrote: 
 


         G Em C 
"Do you love me?, Do you wanna be my friend?
             D 
And if you do.
           G Em C 
Well then don't be afraid to take me by the hand
         D 
if you want to.
   C D           
I think this is how love goes, check yes or no."

 G G D D C G D C 
Now we're grown up and she's my wife
 G D C 
Still like two kids with stars in our eyes
 G D C 
Ain't much changed, I still chase Emmylou
 C D 
Up and down the hall,around the bed in our room.

 G D C 
Last night I took her out in a white limousine
 G D C 
Twenty years together, she still gets to me
 G D C 
Can't believe it's been that long ago
 C D 
when we got started with just a little note.


         G Em C 
"Do you love me, Do you wanna be my friend?
             D 
And if you do.
           G Em C 
Well then don't be afraid to take me by the hand
         D 
if you want to.
   C D           
I think this is how love goes, check yes or no."

 G G D D C    (x2)

         G Em C 
Do you love me, Do you wanna be my friend?
             D 
And if you do.
           G Em C 
Well then don't be afraid to take me by the hand
         D 
if you want to.
   C D           
I think this is how love goes, check yes or no.


*Fade to end of song with*

 G G D D C    (x4)
Check yes or no

No Entiendo chords – Belinda V3

 Cm Gm 
La ilusión se va de mi
                       F 
como el aire al respirar.

 Cm Gm 
Tu amor ya lo perdí,
                       F 
como un sueño al despertar.

 F A# Cm 
La luna saldrá de nuevo otra vez
           F 
y tú, mi amor no estarás.

               A# 
A veces no entiendo,
              Gm 
no sé lo que siento
 Cm F 
quisiera saber qué hice mal.
  
            A# 
Y nunca te pude decir
                   Gm 
que muero porque estés aquí
     Cm F 
ser fuerte es mi decisión.

 Cm Gm 
Tu recuerdo es una flor
                  F 
el perfume de tu voz.

 Cm Gm 
Tu silencio es un rumor
                   F 
que me llena de dolor...

              A# 
Y en algun rincón
           C#  
de mi corazón, amor,
         F 
siempre tú quedarás.

               A# 
A veces no entiendo,
              Gm 
no sé lo que siento
 Cm F 
quisiera saber qué hice mal.
  
            A# 
Y nunca te pude decir
                   Gm 
que muero porque estés aquí
     Cm F 
ser fuerte es mi decisión.

 Cm Gm 
Tu sonrisa está en mi
                    F 
tu recuerdo se quedó
                A# 
quítame este dolor.

Gm-Cm-F

            A# 
Quisiera saber entender
          Gm 
cómo reparar el dolor
               Cm 
que siento en mi corazón
             F 
si ya no te tengo mi amor.

               A# 
A veces no entiendo,
              Gm 
no sé lo que siento
 Cm F 
quisiera saber qué hice mal.
  
            A# 
Y nunca te pude decir
                   Gm 
que muero porque estés aquí
     Cm F 
ser fuerte es mi decisión.

               A# 
A veces no entiendo,
              Gm 
no sé lo que siento
 Cm F 
quisiera saber qué hice mal.
  
            A# 
Y nunca te pude decir
                   Gm 
que muero porque estés aquí
     Cm F 
ser fuerte es mi decisión.

 A# Gm Cm F           
Eh... Ah...  Mi decisión... Ooh, yeah

 Cm Gm 
Tu recuerdo es una flor
                  F 
el perfume de tu voz.

All Your Friends chords – Coldplay V3

 F#m C#m E F#m      
On and on. You're told which side you're on.
 E 
Aaaaahhaaahhaah
 F#m C#m E F#m 
You're forced, you're thrown, to become the scythe to cut the corn.
 C#m D 
Aaaahhaaahhaahhaaa

 D E 
And all your friends they Ride into the sunset
 C#m D 
Fly into the sunset,and away they go.
 D E 
And all your friends they ride into the sunset,
 C#m D 
Fly into the sunset. And away they're thrown
          Bm E F#m 
Into the fire


 F#m C#m E F#m 
Ten Below. A call comes on the radio
 E 
Aaahhaahhaahaa
 F#m C#m E F#m 
Over you go. And red now all the rivers flow.
 C#m D     
The Poppies grow. Aaahhahhaahhaa


 
 D E 
And all your friends they Ride into the sunset
 C#m D 
Fly into the sunset,and away they go.
 D E 
And all your friends they ride into the sunset,
 C#m D 
Fly into the sunset. And they're taken home
          Bm E F#m 
Into the fire
       Bm E F#m 
Open Fire.

Musical interlude same as chorus

       Bm E F#m 
Open fire.
       Bm E F#m 
Open fire.
       Bm E F#m 
Open fire.
      Bm E F# 
Just ride and fire.

Iridescent chords – Linkin Park V3

 Intro:  Bm G Bm G D G 
When you were standing in the wake of devastation
               D G 
When you were waiting on the edge of the unknown
          Bm G 
With the cataclysm raining down, insides crying save me now
 Bm A 
You were there and possibly alone

Chorus:
             D G Bm 
Do you feel cold and lost in desperation
     A D G Bm 
You build up all the failures all you've known
   A D G Bm A 
Remember all the sadness and frustration
            G A Bm G Bm G 
And let it go, oh oh oh oh, let it go

            D G 
And in the burst of light that blinded every angel
           D G 
As if the sky had blown the heavens into stars
              Bm G 
You felt the gravity of temper grace falling into empty space
 Bm A 
No one there to catch you in their arms

Chorus:
             D G Bm 
Do you feel cold and lost in desperation
     A D G Bm 
You build up all the failures all you've known
   A D G Bm A 
Remember all the sadness and frustration
            G Bm A D Bm A 
And let it go, oh oh oh oh, let it go

 D Bm A 

Chorus:
             D Bm A 
Do you feel cold and lost in desperation
              D Bm A 
You build up all the failures all you've known
          D Bm A 
Remember all the sadness and frustration
            G A 
And let it go, oh oh oh oh

        D Bm A 
Let it go oh oh oh, oh
        D Bm A 
Let it go oh oh oh, oh
        D Bm A 
Let it go oh oh oh, oh
        G A 
Let it go oh oh oh

Chorus:
             D G Bm

Dissolve Me Tabs – Alt-J V3

 -------------------------------------------------------------------------------
                            Alt-J Dissolve ME
-------------------------------------------------------------------------------


Tuning: Open D
      
    This is played through the verses
d |----0--0-----0--0-----0--0-----0--0----------------------------------------|
A |----9--9-----7--7-----5--5-----5--5----------------------------------------|
F#|---------------------------------------------------------------------------|   x3
D |---------------------------------------------------------------------------|
A |---------------------------------------------------------------------------|
D |--9---9----7---7----5---5----0---0-----------------------------------------|
     
    The fourth bar of each verse finishes with this
d |----0--0-----0--0-----0--0--0----0-----------------------------------------|
A |----9--9-----7--7-----5--4--5----5/9---------------------------------------|
F#|---------------------------------------------------------------------------|
D |---------------------------------------------------------------------------|
A |---------------------------------------------------------------------------|
D |--9---9----7---7----5---------0--------------------------------------------|

    During the "gold" part each 'chord' is plucked just once and left to ring
d |----0-------0-------0-------0----------------------------------------------|
A |----9-------7-------5-------5----------------------------------------------|
F#|---------------------------------------------------------------------------|   
D |---------------------------------------------------------------------------|
A |---------------------------------------------------------------------------|
D |----9-------7-------5-------0----------------------------------------------|



    1st pre chorus/chorus 
d |--------------------------------0----0-------------------------------5----------4--------|
A |--------------------------------12---14-----9---7--7--7----------------5----------4------|
F#|--------------------------------------------8---7--7--7------------5----------4----------|
D |------------------------------------------0----7--7--7-----------------------------------|
A |-----------------------------12----14----------------------------------------------------|
D |--2----2/5---5/9----12\5----------------------------------0--5---5----------4------------|

   
    Second chorus that goes in to the "oooooohhhhhs"
d |--------------------------------0----0-------------------------------0------0-----------------------|
A |--------------------------------12---14-----9---7--7--7--------------12-----14---9----7--7--7-------|
F#|--------------------------------------------8---7--7--7--------------------------8----7--7--7-------|
D |------------------------------------------0----7--7--7---------------------------0---7--7--7--------|
A |-----------------------------12----14-----------------------------12------14------------------------|
D |--2----2/5---5/9----12\5----------------------------------0--5---------------------------------0---5|


    "Oooooohhhhhhhs"
d |-----5----5----0----7-------|
A |-----5----5----0----7-------|
F#|-----5----5----0----7-------|    x4
D |-----5----5----0----7-------|
A |-----5----5----0----7-------|
D |-----5----5----0----7-------|

    Back to this for the "she makes the sound the sound the sea make"
d |----0--0-----0--0-----0--0-----0--0----------------------------------------|
A |----9--9-----7--7-----5--5-----5--5----------------------------------------|
F#|---------------------------------------------------------------------------|  
D |---------------------------------------------------------------------------|
A |---------------------------------------------------------------------------|
D |--9---9----7---7----5---5----0---0-----------------------------------------|


    End with something like this
d |---0---0---0--0--0--0------------------

Again Today chords – Brandi Carlile V3

 G 
Broken sticks and broken stones
      D 
Will turn to dust just like our bones
      Em C 
It's words that hurt the most now isn't it
         G 
Are you sad inside, are you home alone
    D 
If I could just pick up the phone
 Em C 
Maybe you could see a better day
                     G 
And you won't waste away
             C 
under my watchful eye
                  Em D 
Because I'm your hero and you're my weakness

                      G 
Who's gonna break my fall
           D 
When the spinning starts
     Em Bm C 
The colors bleed together and fade
                      G 
Was it ever there at all
           D 
Or have I lost my way
     Em D 
The path of least resistance
    C G D 
Is catching up with me again today

 G 
I'm broken down, not good enough
     D 
The broken promises add up
    Em C 
To twice their weight in tears which I have caused

      G 
I'm afraid to sink, I'm afraid to swim
      D 
I'm sad to say I miss my friends
   Em C 
I know that I'm supposed to step away
                     G C 
But they need me to stay and keep a watchful eye
            Em D 
On all my heroes and all their demons

                          D 
But who's gonna break my fall
           D 
When the spinning starts
     Em Bm C 
The colors bleed together and fade
                      G 
Was it ever there at all
           D 
Or have I lost my way
     Em D 
The path of least resistance
    C D 
Is catching up with me again today

Not today
          
Not today

 G D Em C G 
Was it ever there at all
            D 
And have I lost my way
     Em Bm 
The path of least resistance

     C                           
Is catching up with me again today


 G D Em C  x2

                      G 
Was it ever there at all
            D 
And have I lost my way
     Em Bm 
The path of least resistance
    C                   
Is catching up with me again today
             G 
Again today

Stjernesludd chords – Dumdum Boys V3

 C F C 
November har vært her lagt igjen sludd
  Dm C G   
Se Solen går ned i svart hvitt
    C F C 
Gatene her er bare brente broer
     Dm C G 
I kveld blinker byen som et mareritt

vers 2
 C F C 
Året så langt har vært bare myke pakker
  Dm C G             
er redd det er for seint til å ta det pent
   C F C  
glorien falmet før bladene falt
 Dm C G    
greinene visket ``jeg fikk som fortjent``

    Am G F C   
Det er ikke alt jeg har sagt som er bull
    Am F G Em 
hadde jeg gods skulle du fått gull


Refreng x2:
   C     
I natt
             Em 
snøen laver ned
          Dm 
lager vi engler
            Am G       
og vi er i himmelen  


Vers 3 
 C F C 
Alle snille barn er kjøpt og betalt
  Dm C G 
på skjermen har sjarmen gått tom
  C F C    
gatenes løse fugler er lagt under treet
   Dm C G 
herberget er lagt ned så ingen har rom

 Am G F C 
Jeg trengar noen svar så jeg ringer en svarer
   Am F G Em 
stemmen lyder kjent så lenge det varer


Refreng x2:
   C     
I natt
             Em 
snøen laver ned
          Dm 
lager vi engler
           Am G       
og vi er i himmelen 

Heart Shaped Wreckage chords – Smash V3

 E C#m A B E 
I'm not scared to tell the truth
 C#m 
I've been to hell and back, and I went with you
 A 
Remind me what we were before
   B 
When we said you are mine and I am yours

 E 
I don't know much, but I know myself
 C#m 
And I don't want to love anybody else
 A 
So let's break the spell and lift the curse
 B 
Remember when we fell for each other head first

 E 
Look at this heart shaped wreckage
 B 
What have we done?
 C#m A 
We've got scars from battles nobody won
         E 
We can start over, better
 B C#m     
Both of us know if we just let the broken pieces
 A 
Let the broken pieces go

 E 
I can't find you in the dark
 C#m 
Will we get back to who we are?
 A 
And I can't fix this on my own
        B             
Our love is still the best thing I've ever known

 E 
Look at this heart shaped wreckage
 B 
What have we done?
 C#m A 
We've got scars from battles nobody won
         E 
We can start over, better
 B C#m     
Both of us know if we just let the broken pieces
 A E 
Let the broken pieces go

 A C#m 
Let the broken pieces go
 A E B 
Just hold on to each other tonight, oh

 E 
Look at this heart shaped wreckage
 B 
What have we done?
 C#m A 
We've got scars from battles nobody won
         E 
We can start over, better
 B C#m     
Both of us know if we just let the broken pieces
 A             
Let the broken pieces 
 A             
Let the broken pieces 
 A B E 
Let the broken pieces 

The Weight intro Tabs – The Band V3

 This is the intro from the studio version.


|-----------5-5-----|--------------------------------|
|-5---5-5h7---5h7-5-|-5-----3---3---3----------------|
|-4h6---------------|-4h6-4-2h4-2h4-2-2-2-2----------|
|-------------------|-----------------2h4-2----------|
|-------------------|-----------------------4-2-0----|
|-------------------|--------------------------------|


And here is intro from the last waltz version.

|-----5-7b9--7b9-7-5---------------------------------|
|-----5--------------7-5-----3---3-------------------|
|-4b6------------------4h6-4-2h4-2------2------------|
|-----------------------------------2-4---2----------|
|-------------------------------------------4/2-0----|
|----------------------------------------------------|

Listen for the timing!
This is how I hear each version, I hope this will help someone out!

Leaning On A Lamp Post chords – Hermans Hermits V3

 Leaning On A Lamp Post – Herman’s Hermits
http://www.lyrster.com/lyrics/leaning-on-a-lamp-post-lyrics-hermans-hermits.html

 

Intro:  (very slow)
      C G7 Am7 G7 
I'm leaning on the lamp, maybe-you-think, I look a tramp,
    C Am7 D7 G7 C Dm7 G7    
Or maybe-you-think I'm round, to steal a car,
     C G7 Am7 G7 
But no, I'm not a crook, and if you think, that's what I look,
      C Am D7 G7 C Dm7 G7 
I'll tell you why and what, my motives are.


V1 (Fast - Gay - Bouncy)
        C G7 Am7 G7 
I'm,   leaning on the lamp-post at the corner of the street,
           C G7 C 
In case a certain little lady comes by;
    G7 C G D7 G G7 
Oh me, oh my, in case a certain little lady comes by.
           C G7 Am7    
Oh, she's wonderful, she's marvellous, she's fabulous, 
       G C G7 C 
She’s beautiful and anyone can understand why.
     F Am7 D7 G7 
I'm leaning on the lamp post at the corner of the street,
           C G7 C 
In case a certain little lady comes by.
     C G7 Am7 G7 
She doesn't always get away, she cannot always get away.
     C G7 C 
But anyway I know that she'll try,
    G7 C G D7 G G7 
Oh me, oh my, I hope that little lady comes by.


Chorus(Slow)
       G7 Dm7 G7   
She's not the kind of girl to be late for,
     C E7 Am      
But this one I'd break any date for, 
   D7 G7 G 
I won't have to ask what she's late for,
       G7 Dm7 G7 
She'd never leave me flat, she's not a girl like that


V2 (Fast - Gay - Bouncy)
  C G7 Am7    
Wonderful, she's marvellous, she's fabulous, 
           G C G7 C 
She’s beautiful, and anyone can understand why.
     F Am7 D7 G7 
I'm leaning on the lamp post at the corner of the street,
           C G7 C 
In case a certain little lady comes by.
     F Am7 D7 G7 
I'm leaning on the lamp post at the corner of the street,
           C G7 C 
In case a certain little lady comes by,
    G7 C G D7 G G7 
Oh me, oh my, In case a certain little lady comes by.
           C G7 Am7    
Oh, she's wonderful, she's marvellous, she's fabulous, 
       G C G7 C 
She’s beautiful, and anyone can understand why.
     F Am7 D7 G7 
I'm leaning on the lamp post at the corner of the street,
           C G7 C Am7 G7 C 
In case a certain little lady comes by.

End Of Me chords – A Day To Remember V3

 I wanted the ability to play this song live in the recorded key without having to drop the entire guitar one
full step. Drop D tuning allows the intro to be played along with the chords. Enjoy and let me know what you
think!! 

TUNING: Drop D

CAPO: 2nd fret

CHORDS (relative to capo):
 Am   - x02210
 Em   - 222000
 D    - 000232
 G    - x55433

E|--------------------------------------------------------------------| 
B|-1---------1--------------------------------------------------------| 
G|---2---0-----2----0-----0---0---------------------------------------| 
D|--------------------2---------2----4-----5---4-----4-----5---4------| 
A|-0---0---0-----0---------------------5---------5-----5---------5----| 
D|------------------2---2---2-----2--0---0---0-----0-0---0---0-----0--|

 Am  –  Em  –  D 
I took some time away for understanding of what brought us here today
Oh, you'll be the end of me
I'm never happy like we were happy, I'm never sad like we were sad
Oh, you'll be the end of me

 Am  –  Em  –  D 
You know me all too well, and I can't suppress the memories
You're gone and I can tell that I've lost more than you'll ever see
Don't say that it's not fair that you're not the person you wanna be
'Cause oh, you'll be the end of me

 Am  –  Em  –  D 
I know I wasn't perfect, but I kept trying till I forgot why I stayed
Oh, you'll be the end of me
Yeah we lost all meaning, we lost the magic, so good luck to you on your way
Oh, you'll be the end of me

 Am  –  Em  –  D 
You know me all too well, and I can't suppress the memories
You're gone and I can tell that I've lost more than you'll ever see
Don't say that it's not fair that you're not the person you wanna be
'Cause oh, you'll be the end of me

 Am  –  Em  –  G  –  D  (2x)

 Am  –  Em  –  G  –  D  
I get it, no, I get it- gave more than I took back (took back, oh well)
I get it, no, I get it- can't help those who don't wanna be helped

 Am  –  Em  –  D 
You know me all too well, and I can't suppress the memories
You're gone and I can tell that I've lost more than you'll ever see
Don't say that it's not fair that you're not the person you wanna be
'Cause oh, you'll be the end of me (you'll be the end of me)


 Am  –  Em  –  G  –  D  (2x)

End

At The Cross chords – Chris Tomlin V3

 Love Ran Red by Chris Tomlin
Love Ran Red 2014
------------------------------
CAPO 1

Intro:
 Em D/F# G G/B C2 Em D/F# G G/B C2 
There’s a place, where mercy reigns and never dies
          Em D/F# G G/B C2   
There’s a place, where streams of grace flows deep and wide

Pre-chorus:
         Dsus C2  
All the love, I’ve ever found
             Dsus C2  
Comes like a flood, comes flowing down

Chorus:
 C2    
At the cross, at the cross
   G 
I surrender my life
        D Am7 
I’m in awe of you; I’m in awe of you
            C2 G 
Where your love ran red, and my sins washed white
       D Am7  
I owe all to you, I owe all to you
 C2 G C2/G 
Jesus


          Em D/F# G G/B C2 
There’s a place, where sin and shame are powerless
          Em D/F# G G/B C2 
Where my heart has peace with God, and forgiveness

Pre-chorus:
         Dsus C2  
All the love, I’ve ever found
             Dsus C2  
Comes like a flood, comes flowing down

Chorus:
 C2    
At the cross, at the cross
   G 
I surrender my life
        D Am7 
I’m in awe of you; I’m in awe of you
            C2 G 
Where your love ran red, and my sins washed white
       D Am7  
I owe all to you, I owe all to you


Bridge:
 C2 Em 
Here my hope is found, here on holy ground
 G Dsus/F# 
Here I bow down, here I bow down
 C2 Em 
Here arms open wide, here you saved my life
 G/D D 
Here I bow down, here I bow

Chorus:
 C2    
At the cross, at the cross
   G 
I surrender my life
        D Am7 
I’m in awe of you; I’m in awe of you
            C2 G 
Where your love ran red, and my sins washed white
       D Am7  
I owe all to you, I owe all to you
       D Am7  
I owe all to you, I owe all to you
 C2/G G C2 G/D 
Jesus
      C2 
Your love ran red
      G C2 G 
Your love ran red

Michael X intro Tabs – Casper V3

 -------------------------------------------------------------------------------
                             Michael X - Casper
-------------------------------------------------------------------------------
: Mayo

Tuning: Standart

Intro + Verse

    C    C    C    C   Cadd9   C     C*  
e|--0----0----0----0-----0-----0-----3---------------------------------------|
B|--1----1----1----1-----3-----1-----1---------------------------------------|
G|--0----0----0----0-----0-----0-----0---------------------------------------|
D|-(2)--(2)--(2)--(2)---(2)---(2)---(2)--------------------------------------|
A|-(3)--(3)--(3)--(3)---(3)---(3)---(3)--------------------------------------|
E|---------------------------------------------------------------------------|

    Am   Am   Am   Am  Asus4   Am   Am*
e|--0----0----0----0-----0-----0-----3---------------------------------------|
B|--1----1----1----1-----3-----1-----1---------------------------------------|
G|--2----2----2----2-----2-----2-----2---------------------------------------|
D|-(2)--(2)--(2)--(2)---(2)---(2)---(2)--------------------------------------|
A|-(0)--(0)--(0)--(0)---(0)---(0)---(0)--------------------------------------|
E|---------------------------------------------------------------------------|

    G    G    G    G     G     G*    G
e|--3----3----3----3-----3-----0-----3---------------------------------------|
B|--3----3----3----3-----3-----3-----3---------------------------------------|
G|--0----0----0----0-----0-----0-----0---------------------------------------|
D|-(0)--(0)--(0)--(0)---(0)---(0)---(0)--------------------------------------|
A|-(2)--(2)--(2)--(2)---(2)---(2)---(2)--------------------------------------|
E|-(3)--(3)--(3)--(3)---(3)---(3)---(3)--------------------------------------|

    F    F    F    F     F6    F     F*  
e|--1----1----1----1-----1-----1-----3---------------------------------------|
B|--1----1----1----1-----3-----1-----1---------------------------------------|
G|--2----2----2----2-----2-----2-----2---------------------------------------|
D|-(3)--(3)--(3)--(3)---(3)---(3)---(3)--------------------------------------|
A|-(3)--(3)--(3)--(3)---(3)---(3)---(3)--------------------------------------|
E|-(1)--(1)--(1)--(1)---(1)---(1)---(1)--------------------------------------|

Dont Ask Me Why chords – Billy Joel V3

 -------------------------------------------------------------------------------
                       DON'T ASK ME WHY - Billy Joel
-------------------------------------------------------------------------------

: Joel Bezaire
 joelbzr

Tuning: Standard (EADGBE)
Capo III

Chord Diagrams:

          G/B G/C G/Bb G A7 D7 C B7 
e|-------3-------3-------3-------3-------0-------2-------0-------2-----------|
B|-------3-------3-------3-------3-------2-------1-------1-------0-----------|
G|-------0-------0-------0-------0-------0-------2-------0-------2-----------|
 D |-------X-------X-------X-------0-------2-------0-------2-------1-----------|
A|-------2-------3-------1-------2-------0---------------3-------2-----------|
E|-------------------------------3-------------------------------------------|

          Em G7 D E7 
e|-------0-------1-------2-------0-------------------------------------------|
B|-------0-------0-------3-------0-------------------------------------------|
G|-------0-------0-------2-------1-------------------------------------------|
D|-------2-------0-------0-------0-------------------------------------------|
A|-------2-------2---------------2-------------------------------------------|
E|-------0-------3---------------0-------------------------------------------|

Intro:  G/B  -  G/C  -  G/Bb  - x 6

 G A7 
All the waiters in your grand cafe
 D7 G C 
Leave their tables when you blink, Oh
 G A7 
Every dog must have his everyday
 D7 G 
Every drunk must have his drink
 B7 Em 
Don't wait for answers
 G7 A7 
Just take your chances
 D7 G/B  -  G/C  -  G/Bb 
Don't ask me why

Interlude:  G/B  -  G/C  -  G/Bb  - x 3

 G A7 
All your life you had to stand in line
 D7 G C 
Still you're standing on your feet, Oh
 G A7 
All your choices made you change your mind
 D7 G 
Now your calendar's complete
       B7 Em 
Don't wait for answers
      G7 A7 
Just take your chances
       D7 G/B  -  G/C  -  G/Bb 
Don't ask me why

Interlude:  G/B  -  G/C  -  G/Bb  - x 3

 D C 
You can say the human heart is only make believe
     D G 
And I am only fighting fire with fire
     E7 A7 
But you are still a victim of the accidents you leave
    E7 A7 D7 
As sure as I'm a victim of desire

 G A7 
All the servants in your new hotel
 D7 G C 
Throw their roses at your feet, Oh
 G A7 
Fool them all but baby I can tell
 D7 G 
You're no stranger to the street
       B7 Em 
Don't ask for favors
       G7 A7 
Don't talk to strangers
       D7 G/B  -  G/C  -  G/Bb 
Don't ask me why

Interlude:  G/B  -  G/C  -  G/Bb  - x 3

Solo Section:  D  -  C  -  D  -  G E7  -  A7  -  E7  -  A7  -  D7 G A7 
Yesterday you were an only child
 D7 G C 
Now your ghosts h