Tag: v4

Im Not There chords – Bob Dylan V4

 ---------------------------------------------------------------------------
                  I’m Not There – Bob Dylan
---------------------------------------------------------------------------
: maguri
Tuning: Standard

Bob Dylan 
I’m Not There (1967)
(Dylan)

From: "The Bootleg Series Vol. 11: The Basement Tapes"

---------------------------------------------------------------------------

capo: 4th fret
play: G
key: B

For original chords transpose this tab +4.

---------------------------------------------------------------------------

BASIC RIFF
   G C/G G C/G G 
  1 + 2 + 3 + 4 +  
e|3---3---3-------|
B|0---0---1-0-1-0-|
G|0---0---0-0-0-0-|
D|0---0---2-0-2-0-|
A|----------------|
E|3-------3-------|

---------------------------------------------------------------------------
CHORDS

          E-A-D-G-B-e
C/G       3-x-2-0-1-3

---------------------------------------------------------------------------


VERSE 1
 G 
Things are crashing down
      G 
She's all too tight
      F 
In my neighborhood
               Am 
She cried both day and night
             G C/G G C/G G 
I know it because it was there


VERSE 2
        G C/G G  
It's a milestone
           F 
But she's down on her luck
         Am 
And the day makes her lonely
        G C/G C C/G G G C/G G  
But to make it hard to buck, now and then


CHORUS 1
   C 
I believe that she'd stop him
        Em 
If she would start to care
     F 
I believe that she'd look upon
     C/G C 
His side that used to care
         Em 
And I'd go by the Lord
                F 
Anywhere she's on my way
               G C/G G C/G G  
But I don't belong there


VERSE 3
      G  
No I don't belong to her
           F 
I don't belong to anybody
          Am 
She's my Christ-forsaken angel
               G C/G G 
But she don't hear me cry


VERSE 4
         G 
She's a lone-hearted mystic
         F 
And she can't carry on
          Am 
When I'm there, she's all right
           G C/G G C/G G 
But she's not when I'm gone


CHORUS 2
        C 
Heaven knows that the answer
           Em 
She’s not calling no one
           F 
She's the way, forsaken beauty
           C 
For she's mine, for the one
       C 
And I lost her, hesitation
        Em 
By temptation as it runs
         Fmaj7  
But she don't holler me
             G C/G G C/G G 
But I'm not there, I'm gone


VERSE 5
          G 
Now I'll cry tonight
        F 
Like I cried the night before
         Am 
And I'm knees on the hassle
          G 
But I'll dream about the door


VERSE 6
         G 
It's so long, she's forsaken
        F 
By her faith, worse to tell
          Am 
It don't have condonation
     G C/G G C/G G 
She smiles, fare thee well


CHORUS 3
          C 
Now when I treat to leave 'er
       Em 
I was born to love her
         F 
But she knows that the kingdom waits
    C 
So high above her
       C 
And I run a better race
          Em 
But i

Ride chords – Twenty One Pilots V4

 ===========================================================
                 Ride - Twenty One Pilots
===========================================================
I Usually hate Capos, But It works really Well if you use one on fret 1, You'll see...

Capo 1 


Intro:
 F F F Gm Dm Dm Dm Bb F F F Gm Dm Dm Dm C 


Verse 1:
 F Gm Dm 
I just wanna stay in the sun where I find
                      Bb 
I know it's hard sometimes
 F Gm Dm 
Pieces of peace in the sun's peace of mind
                      C 
I know it's hard sometimes
 F Gm Dm 
Yeah I think about the end just way too much
                      Bb 
But it's fun to fantasise
 F Gm Dm 
All my enemies who wouldn't wish who I was
                      C 
But it's fun to fantasise



Chorus:
 F Gm 
Oh, wooh
     Dm C F 
I'm falling so I'm taking my time on my ride
        Gm 
Oh, wooh
     Dm       -                            F Gm Dm 
I'm falling so I'm taking my time on my riiiiiiiiiiiiiiide
           Bb F Gm Dm C 
Taking my time on my riiiiiiiiiiiiide



Verse 2:
 F 
I'd die for you That's easy to say
                                        Gm 
We have a list of people that we would take
   Dm    
A bullet for them A bullet for you
                        Bb 
A bullet for everybody in this room
       F 
But I don't seem to see many bullets coming through
          Gm 
See many bullets coming through
 Dm 
Metaphorically I'm the man
                       Bb 
But literally I don't know what I'd do
     F 
I'd live for you And that's hard to do
                             Gm 
Even harder to say When you know it's not true
      Dm 
Even harder to write When you know that tonight
                                      Bb 
There are people back home which are talking to you
          F 
But then you ignore them still
                                Gm 
All these questions they're forming like
               Dm  
Who would you live for? Who would you die for?
                C 
Would you ever kill?



Chorus



Bridge:
 F Gm 
   I've been thinking too much
 C Dm 
   I've been thinking too much
 Csus4/G Dm 
   I've been thinking too much
 C C/E F 
   I've been thinking too much; Help me
                                           Gm C            
   I've been thinking too much (I've been thinking too much)
                                 Dm Csus4/G 
   I've been thinking too much (help me)
                                           Dm C 
   I've been thinking too much (I've been thinking too much)
                                 C/E 
   I've been thinking too much



Last Chorus:
 F Gm 
Oh, wooh
     Dm Bb F 
I'm falling so I'm taking my time on my ride
        Gm 
Oh, wooh
     Dm    -                       F Gm Dm 
I'm falling so I'm taking my tiiiiiiiiiiiiiiiimmmeeee
           Bb F Gm D

Heaven Knows Im Miserable Now Tabs – The Smiths V4

 Heaven Knows...  (capo 2nd fret) – figure out the rhythm by listening to the song

    Play these first four with tremolo bar, then alternate strumming between the following open chords
     F#maj7     Dmaj7       C#m       B       open B                 open C#
F#|---8-----------3----------2--------0-------0-0-0-0-0--0-0-0-0-0---0-0-0-0-0--0-0-0-0-0--
C#|---10----------5----------3--------2-------5-5-5-0-0--5-5-5-5-0---7-7-7-0-0--7-7-7-7-0--
A |---9-----------4----------2--------2-------6-6-6-6-6--6-6-6-6-6---8-8-8-8-8--8-8-8-8-8--
E |---10----------5----------4--------2-------7-7-7-7-7--7-7-7-7-7---9-9-9-9-9--9-9-9-9-9--
B |---8-----------3----------2--------0----------------------------------------------------
F#|----------------------------------------------------------------------------------------


Verse 1 and 3
       F#maj7                             D#m                      G#m
F#|------7------7---7----7----7---7---7----9---9---9---9---9---9----9----9----9------------
C#|------9------9---9----9----9---9---9----9---9---9--12--12---9---10---10----9------------
A |------8------8---8----8----8---8---8----9---9---9---9---9---9----9----9----9------------
E |------9------9---9----9----9---9---9---11--11--11--11--11--11---11---11---11------------
B |------7------7---7----7----7---7---7----------------------------------------------------
F#|----------------------------------------------------------------------------------------

         B          slide to  C#                  Third verse, do this instead:
F#|------0----0----0----0--/--0------0--------|--------------------------------------------
C#|------5----5----5----5--/--7------0--------|--------5---------------7-------------------
A |------6----6----6----6--/--8------8--------|-----------6---------------8----------------
E |------7----7----7----7--/--9------9--------|----7---------7---7/9---------9-------------
B |-------------------------------------------|--------------------------------------------
F#|-------------------------------------------|--------------------------------------------


       F#maj7                             D#m                     G#m
F#|------7------7---7----7----7---7---7----9---9---9---9---9--9----9----9----9-------------
C#|------9------9---9----9----9---9---9----9---9---9--12--12--9---10---10----9-------------
A |------8------8---8----8----8---8---8----9---9---9---9---9--9----9----9----9-------------
E |------9------9---9----9----9---9---9---11--11--11--11--11--11--11---11---11-------------
B |------7------7---7----7----7---7---7----------------------------------------------------
F#|----------------------------------------------------------------------------------------


         B                               
F#|------0----0----0----0----0----0---------
C#|------5----5----5----5----5----0---------
A |------6----6----6----6----6----6---------
E |------7----7----7----7----7----7---------
B |-----------------------------------------
F#|-----------------------------------------


The Chorus: “In my life...” 
       F#maj7         B          slide to  C#
F#|------7------7-----0----0----0----0--/--0------0---------------------------------------
C#|------9------9-----5----5----5----5--/--7------0---------------------------------------
A |------8------8-----6----6----6----6--/--8------8---------------------------------------
E |------9------9-----7----7----7----7--/--9------9---------------------------------------
B |------7------7-------------------------------------------------------------------------
F#|---------------------------------------------------------------------------------------

“Why do I smile...”
       F#maj7        C#               B                  A#m
F#|------7------7-----0----0----0--/--0----0-----0--------4---4--4--4---4-----------------
C#|------9------9-----7----7----7--/--5----5-----5--------4---4--4--4---4-----------------
A |------8------8-----8----8----8--/--6----6-----6--------4---4--4--4---4-------

Colors chords – Halsey V4

 Easiest to transpose chords up 1/2-step (first chord Bm) and tune the guitar down to Eb.


ORDER: V1 PC1 C V2 PC2 C B FC O


[VERSE 1]
             Bbm                                         (  Gb/Bb  )
Your little brother never tells you but he loves you so
               Bbm                               (  Gb/Bb  )
You said your mother only smiled on her TV show
             Gb6 
You're only happy when your sorry head is filled with dope
            Ebm Fm7 Gb 
I hope you make it to the day you're twenty-eight years old


[PRE-CHORUS 1]
        Bbm                               (  Gb/Bb  )
You're dripping like a saturated sunrise
        Bbm                               (  Gb/Bb  )
You're spilling like an overflowing sink
        Gb6 
You're ripped at every edge but you're a masterpiece
                Ebm Gb-5 Bbm 
And now you're tearing through the pages and the ink, mm..


[CHORUS]
n.c.           Gb 
Everything is blue

His pills, his hands, his jeans
             Ab 
And now I'm covered in the colors,

pulled apart at the seams
          Bbm 
And it's blue,
          Db/Ab 
and it's blue
               Gb 
Everything is grey:

his hair, his smoke, his dreams
              Gb 
And now he's so devoid of color,

he don't know what it means
          Bbm 
And he's blue
          Db/Ab Ab 
And he's blue


[VERSE 2]
         (  Bbm  )
You were a vision in the morning when the light came through
             Bbm 
I know I've only felt religion when I've lied with you
                 Db/F 
You said you'll never be forgiven 'til your boys are too
               Gb 
And I'm still waking every morning but it's not with you


[PRE-CHORUS 2]
        Bbm                               (  Gb/Bb  )
You're dripping like a saturated sunrise
        Gb 
You're spilling like an overflowing sink
        Bbm Fm7 
You're ripped at every edge but you're a masterpiece
                Gb 
And now you're tearing through the pages and the ink, mm..


[CHORUS]
               Gb 
Everything is blue

His pills, his hands, his jeans
             Ab 
And now I'm covered in the colors,

pulled apart at the seams
          Bbm 
And it's blue,
          Db/Ab 
and it's blue
               Gb 
Everything is grey:

his hair, his smoke, his dreams
              Gb 
And now he's so devoid of color,

he don't know what it means
          Bbm 
And he's blue
          Db/Ab Ab 
And he's blue


[BRIDGE]
 Gb Gbmaj7 Db/Ab 
   You were red      and you liked me   'cause I was blue,
            Bbm 
   but you touched me and suddenly I was a lilac sky
            Db Dbadd9 
   And you decided purple just wasn't for you


[FINAL CHORUS]
               Gb 
Everything is blue

His pills, his hands, his jeans
             Ab 
And now I'm covered in the colors,

pulled apart at the seams
          Bbm 
And it's blue,
          Db/Ab Ab 
and it's blue
n.c.           Gb 
Everything is grey:

his hair, his smoke, his dreams
              Gb 
And now he's so devoid of color,

he don't know what it means
          Bbm 
And he's blue
          Db/Ab Ab 
And he's blue


[OUTRO]
               Gb 
Everything is blue 
               Db/Ab Dbadd9/Ab 
Everything is blue

Everything Stays chords – Rebecca Sugar V4

 This is the version Marceline sings on Adventure Time.
 
 G C 
Let’s go in the garden
 G B7 
You’ll find something waiting
 Em C 
Right there where you left it
 G D 
Lying upside down

 G C  
When you finally find it
 G B7 
You’ll see how it’s faded
 Em C                                    
The underside is lighter 
          G D 
When you turn it around
        
 
            Am  
Everything stays 
                 Em 
Right where you left it
            D 
Everything stays
 B7 Em 
But it still changes
 G7 C 
Ever so slightly
 Cm7 G 
Daily and nightly
              D 
In little ways
      B7 Em 
When everything stays

Untitled Tabs – Mumford And Sons V4

 -------------------------------------------------------------------------------
                             UNTITLED - Mumford & Sons
-------------------------------------------------------------------------------
: Aidan Staines
 ajs_chess97@hotmail.com

Tuning: DADF#AD

First tab but don't be discouraged. I have spent a lot of time watching Marcus play and have critiqued
on a lot of other tabs before. After playing Mumfords songs for almost a year now I am certain this tab 
is the most correct and accurate for Untitled. For those who know how to play songs such as I Gave You
All it follows the same finger picking pattern. I have put a lot of effort and time into this tab and I 
hope I can get helpful feedback as I do wish to continue with tablature.

This particular tab is transcribed from their live performance as seen in this video here:




Intro: w/ fingers

D |--------------------------------------------------------------------------------------|
A |--5-------5---5-------5---------------------------------------------------------------|
F#|------0-----------0-------3-------3---3-------3---0-------0---5-------5---3-------3---|
D |------------------------------2-----------2-----------0-----------0-----------0-------|
A |--2-2-------2-2-2-------2-4-4-------4-4-4-------4-------------------------------------|
D |--------------------------------------------------0-0-------0-5-5-------5-4-4-------4-|

D |--------------------------------------------------|
A |--------------------------------------------------|
F#|--7-------7---7-------7---7-------7---7-------7---|x2
D |------0-----------0-----------0-----------0-------|
A |--------------------------------------------------|
D |--7-7-------7-7-7-------7-7-7-------7-7-7-------7-|

Verse 1:

D |--------------------------------------------------------------------------------------------------|
A |--------------------------------------------------------------------------------------------------|
F#|--0-------0---0-------0---0-------0---0-------0---5-------5---5-------5---5-------5---5-------5---|
D |------0-----------0-----------0-----------0-----------0-----------0-----------0-----------0-------|
A |--------------------------------------------------------------------------------------------------|
D |--0-0-------0-0-0-------0-0-0-------0-0-0-------0-5-5-------5-5-5-------5-5-5-------5-5-5-------5-|

D |--------------------------------------------------------------------------------------------------|
A |--------------------------------------------------------------------------------------------------|
F#|--0-------0---0-------0---0-------0---0-------0---7-------7---7-------7---7-------7---7-------7---|x2
D |------0-----------0-----------0-----------0-----------0-----------0-----------0-----------0-------|
A |--------------------------------------------------------------------------------------------------|
D |--0-0-------0-0-0-------0-0-0-------0-0-0-------0-7-7-------7-7-7-------7-7-7-------7-7-7-------7-|

Chorus 1:

D |--------------------------------------------------------------------------------------|
A |--5-------5---5-------5---------------------------------------------------------------|
F#|------0-----------0-------3-------3---3-------3---0-------0---5-------5---3-------3---|
D |------------------------------2-----------2-----------0-----------0-----------0-------|
A |--2-2-------2-2-2-------2-4-4-------4-4-4-------4-------------------------------------|
D |--------------------------------------------------0-0-------0-5-5-------5-4-4-------4-|

D |--------------------------------------------------|
A |--------------------------------------------------|
F#|--7-------7---7-------7---7-------7---7-------7---|x2
D |------0-----------0-----------0-----------0-------|
A |--------------------------------------------------|
D |--7-7-------7-7-7-------7-7-7-------7-7-7-------7-|

Interlude 1:

D |---------------------------------

Lovers Eyes chords – Mumford And Sons V4

 Lover’s Eyes – Mumford & Sons
Standard Tuning (no capo)

Intro TAB:
E-----------------------------------------------------|
B-----------------------------------------------------|
G-----------------------------------------------------|
D--0h2-0-2/4---4h5-4-5/7---5-4-2-2-2h4-4-2-0----------|
A-----------------------------------------------------|
E-----------------------------------------------------|

Verse 1:
N/C       D G D 
Love was kind, for a time
 G A D 
Now just aches, and it makes me blind
      G D G D   
This mirror holds my eyes too bright
      G A D 
That I can't see the others in my life

Chords:  G D G D G A D 
Repeat  Intro TAB

     G D G D  
Are we too young and heads too strong
    G A D 
To bear the weight of these lover's eyes
        G D G D     
'cause I feel numb beneath your tongue
   G A D 
Beneath the curse of these lover's eyes.

Chorus 1:
            G D A D 
But do not ask the price I pay, I must live with my quiet rage
          G D A D 
Tame the ghosts in my head that run wild and wish me dead
                     G D 
Should you shake my ash to the wind
          A D 
Lord forget all of my sins
           G D A D 
Or let me die where I lie 'neath the curse of my lover's eyes

Break: D  G (3x)

Verse 2:
      G D G D 
Cuz there's no drink or drug I've tried 
    G A D 
To rid the curse of these lover's eyes
     G D G D  
And I feel numb beneath your tongue
      G A D 
Your strength just makes me feel less strong

Chorus 2:
          G D A D 
I do not ask the price I pay, I must live with my quiet rage
          G D A D 
Tame the ghosts in my head that run wild and wish me dead
                     G D 
Should you shake my ash to the wind
          A D 
Lord forget all of my sins
           G D A D 
Or let me die where I lie 'neath the curse of my lover's eyes

Break: D  G (4x)

Bridge: (2x)
        D A D 
I walk slow, I walk slow
         Bm G D 
Take my hand, help me on my way.

Instrumental:  D A D Bm G D  (3x)

Bridge: (2x)
            D A D 
and I walk slow, I walk slow
         Bm G D 
Take my hand, help me on my way.


Outro Instrumental:
 D A D G A Bm D  (3x)
Aaah  Aaahh  Aaahhaahhaaah

All I Ask chords – Adele V4

 E G#m A B E G#m 
 I will leave my heart at the door
          A 
 I won't say a word
          B 
 They've all been said before, you know
     
     E G#m 
 So why don't we just play pretend
                 A 
 Like when I'm scared of what is coming next
      B G#       
 Or scared of having nothing left

        C#m E 
 Look, don't get me wrong, I know
                  F#m 
 There is no tomorrow
  B 
 All I ask is 


  E C#7 F#m 
 If this is my last night with you
  A B E 
 hold me like I'm more than just a friend
            C#7 F#m 
 give me a memory I can use
  A B 
 take me by the hand
           E B/D# C#m 
 while we do what lovers do
                      F#m 
 it matters how this ends
         A E 
 'Cause what If I never love again?

 G#m A B E 
 I don't need
       G#m 
 Your honesty
               A 
 it's already in your eyes
          B 
 and I'm sure my eyes, they speak for me
 
  E G#m 
 No one knows me like you do
                        A 
 and since you're the only one that matters
           B G# 
 tell me, who do I run to?


        C#m E 
 Look, don't get me wrong, I know
                  F#m 
 There is no tomorrow
  B 
 All I ask is 


  E C#7 F#m 
 If this is my last night with you
  A B E 
 hold me like I'm more than just a friend
            C#7 F#m 
 give me a memory I can use
  A B 
 take me by the hand
           E B/D# C#m 
 while we do what lovers do
                      F#m 
 it matters how this ends
         A E7/D 
 'Cause what If I never love again


         E A G#m F#m 
 Let this be our lesson in love
                  A B F#m G#m 
 let this be the way we remember us
                      G#7 C#m   
 I don't want to be cruel or vicious 
              F#m 
 And I ain't asking for forgiveness
  A C 
 All I ask is 


  F D7 Gm 
 If this is my last night with you
  Bb C F 
 hold me like I'm more than just a friend
            D7 Gm 
 give me a memory I can use
  Bb C               
 take me by the hand
           F C/E Dm 
 while we do what lovers do
                       Gm 
 it matters how this ends
         Gm/F Bb Am Gm Bb/F F 
 'Cause what If I never lo.............ve again

Broken Home chords – 5 Seconds Of Summer V4

 5 Seconds of Summer - Broken Home

NO CAPO

 A#  ( Bb )
They would yell, they would scream, they were fighting it out
 Ab 
She would hope, she would pray, she was waiting it out
 F# F#m 
Holding onto a dream while she watches these walls fall down

 A#                                                    
Sharp words like knives, they were cutting her down
 Ab 
Shattered glass like the past, it’s a memory now
 F# F#m 
Holding onto a dream while she watches these walls fall down

[Chorus]
 C# 
Hey mum, hey dad
                    Ab 
When did this end?
                                    F# 
When did you lose your happiness?
                               F#m 
I'm here alone inside of this broken home

 C# 
Who’s right, who’s wrong
                   Ab 
Who really cares?
                                              F# 
The fault, the blame, the pain’s still there
                               F#m A# 
I'm here alone inside of this broken home, this broken home

[Verse 2]
 A#  ( Bb )                                                  
Wrote it down on the walls, she was screaming it out
 Ab 
Made it clear, she’s still here, are you listening now?
 F# F#m 
Just a ghost in the halls feeling empty, they’re vacant now

 A# 
All the battles, all the wars, all the times that you’ve fought
 Ab 
She’s a scar, she’s the bruising, she’s the pain that you brought
 F# F#m 
There was life, there was love like a light and it’s fading out

 C# 
Hey mum, hey dad
                    Ab 
When did this end?
                                   F# 
When did you lose your happiness?
                               F#m 
I'm here alone inside of this broken home

 C# 
Who’s right, who’s wrong
                   Ab 
Who really cares?
                                              F# 
The fault, the blame, the pain’s still there
                               F#m A# 
I'm here alone inside of this broken home, this broken home

             A# 
This broken home

[Bridge]

 A# F# C# 
You've gotta let it go, you’re losing all your hope
                    Ab A# 
Nothing left to hold, locked out in the cold
                   F# C# 
Your painted memories that washed out all the seas
                 Ab A# 
I'm stuck in between a nightmare and lost dreams




 C# 
Hey mum, hey dad
                    Ab 
When did this end?
                                    F# 
When did you lose your happiness?
                               F#m 
I'm here alone inside of this broken home

 C# 
Hey mum, hey dad
                    Ab 
When did this end?
                                 F# 
When did you lose your happiness?
                               F#m 
I'm here alone inside of this broken home

                                   
 C# 
Who’s right, who’s wrong
                 Ab 
Who really cares?
                                              F# 
The fault, the blame, the pain’s still there
                               F#m A# 
I'm here alone inside of this broken home, this broken home
 A# 
This broken home

Frankenstein Tabs – Edgar Winter Group V4

 FRANKENSTEIN

As recorded by The Edgar Winter Group
(From the 1972 Album THEY ONLY COME OUT AT NIGHT)

Words and Music by Edgar Winter

 Slowhand


Gtr I (E A D G B E) - 'Electric Guitar  w/ distortion'
Gtr II (E A D G B E) - 'Electric Guitar w/ distortion'
Gtr III (E A D G B E) - 'Synthesizer'
Gtr IV (E A D G B E) - 'Clean Electric Guitar '
Gtr V (E A D G B E) - 'Saxophone'
Gtr VI (E A D G B E) - 'Synthesizer'


  Q=96
             G5          F5G5  Bb5  G5          F5G5N.C.
 4/4 
  Gtr I  (El. Gtr. w/ dist.)                      Gtr III (Synth. arr. for Gtr.)
  W          S S S S S E S e e Q    S S S S +S  S S S S S S S S S S S
|----------|----------------------|-----------------------------------|
|----------|----------------------|-----------------------------------|
|----------|-------------------3--|-----------------------------------|
|----------|-5-5---5---5-3-5-5-3--|-5-5---5-(5)-3-5---------3-5p3-5---|
|----------|-5-5---5---5-3-5-5----|-5-5---5-(5)-3-5---3-4h5-----------|
|----------|----------------------|-----------------6---------------3-|


  G5          F5G5  BbC5Bb5 G5          F5G5N.C.
  Gtr I
  S S S S S E S e e S S E   S S S S +S  S E Q   Q
|-------------------------|-------------------------||
|-------------------------|-------------------------||
|-------------------3-5p3-|-------------------------||
|-5-5---5---5-3-5-5-3-5p3-|-5-5---5-(5)-3-5-3s=21\--||
|-5-5---5---5-3-5-5-------|-5-5---5-(5)-3-5---------||
|-------------------------|-------------------------||
|
| Gtr II (El. Gtr. w/ dist.)
| W                         W
|-------------------------|-------------------------||
|-------------------------|-------------------------||
|-------------------------|-------------------------||
|-------------------------|-------------------------||
|-------------------------|-------------------------||
|-------------------------|-------------------------||


  N.C.
        ~~~~~~
  S S S S +E  S S S S S S +E  S S
|-----------------------------------|
|-----------------------------------|
|-------------3---5-3---3-(3)-5-3---|
|-2-3-4-5-(5)---5-----5-------------|
|-----------------------------------|
|-----------------------------------|
|
|       ~~~~~~          ~~~~~~
| S S S S +E  S S S S S S +E  S S
|-----------------------------------|
|-----------------------------------|
|-----------------------------------|
|-----------------------------------|
|-------------1---3-1---1-(1)-3-1---|
|-0-1-2-3-(3)---3-----3-------------|


                  ~~~~~~
      |---3---|
  E   S   +S  S E E +E  E E +E
|--------------------------------|
|--------------------------------|
|-5b7-5b7r(5)p3---3-(3)----------|
|---------------5-------5-5-(5)\-|
|--------------------------------|
|--------------------------------|
|
|                 ~~~~~~
|     |---3---|
| E   S   +S  S E E +E  E E  E
|--------------------------------|
|--------------------------------|
|--------------------------------|
|--------------------------------|
|-3b5-3b5r(3)p1---1-(1)----------|
|---------------3-------3-4--5---|


  Gtr III (Synth. arr. for Gtr.)
                                                 ~~~~~~~~~~~~
             |---3---|                   |--3--|
   Q   E   E S   +S  S E E S S    E    E S +S  S E +Q   +Q
|-/6---------------------------|-------------------------------|
|------6b8-6-------------------|-------6-----------------------|
|------------5b7r(5)p3---3-5p3-|--5b7====5r(5)p3---------------|
|----------------------5-------|-----------------5-(5)--(5)\---|
|------------------------------|-------------------------------|
|------------------------------|-------------------------------|
|
|  E E E   E E         E E E      E    E E       E +Q.       E
|------------------------------|-------------------------------|
|------------------------------|-------------------------------|
|------------------------------|-------------------------------|
|------------------------------|-------------------------------|
|------4-

Ill Be Over You chords – Toto V4

 I’LL BE OVER YOU
Toto
 G. S. Saavedra II

Capo 1

 
                D 
  Some people live their dreams
                 E 
  Some people close their eyes
                 Bm7 
  Some people's destiny
  D A 
  Passes by

                 D 
  There are no guarantees
                E 
  There are no alibis
                   Bm7 
  That's how our love must be
  D A 
  Don't ask why

Refrain I:
                  E    
  It takes some time
   D/F#   
  God knows how long
      Dm E 
  I know that I can forget you

Chorus I:
                   A E F#m E  
  As soon as my heart stops breakin'
         F#m E D E  
  *And tears are fading 
       Bm7 D E     
  As soon as forever is through
    D A 
  I'll be over you

                 D 
  Remembering times gone by
            E 
  Promises we once made
                 Bm7 
  What are the reasons why
  D A 
  Nothing stays the same

Refrain II:
                    E    
  There were the nights 
   D/F#   
  Holding you close
    Dm E 
  Someday I'll try to forget them

Repeat Chorus I ----

Adlib:  E F# D E Bm7 C#m7 DM7 

Chorus II:
                   A E F#m E/A 
  As soon as my heart stops breakin'                       
            F#m E/F# D E/D 
  And tears are fading
     Bm7 D E     
  Someday I’ll be over you

Chorus II:
                   A E F#m E  
  As soon as my heart stops breakin'
         F#m E D E  
  *And tears are fading 
   Bm7 D E     
  Someday I’ll be over you

Coda:
  (Do Chorus II chords twice then fade)
  As soon as my heart ………

*not "Anticipating" as some lyrics suggest

Let It Go Tabs – James Bay V4

 -------------------------------------------------------------------------------
                             Let It go - James Bay
-------------------------------------------------------------------------------
: Trond Marius Sørensen
 Trond_Marius_96@hotmail.com

Tuning: It's tuned a half-step down, but the F# string should be tuned a whole step down to F.

D#
A#
F
C#
G#
D#



Intro
                        
|------------------------------------------------------------|
|-----7-----7-----7----/12------12-----12-----12-----12------|
|--------0-----0-----0-------0------0------0------0------0---|
|------------------------------------------------------------|
|-----5----------------/10-----------------------------------|
|------------------------------------------------------------|
      
|------------------------5------5------5---------------------|
|-----7-----7-----7---------------------------8-------7------|
|--------0-----0-----0-------0------0------0------0------0---|
|------------------------------------------------------------|
|------------------------------------------------------------|
|-----7------------------5-----------------------------------|

|------------------------------------------------------------|
|-----7-----7-----7----/12------12-----12-----12-----12------|
|--------0-----0-----0-------0------0------0------0------0---|
|------------------------------------------------------------|
|-----5----------------/10-----------------------------------|
|------------------------------------------------------------|


|------------------------0------0-------0-----0-------0------|
|-----7-----7-----7------------------------------------------|
|--------0-----0-----0-------0------0------0------0------0---|
|------------------------------------------------------------|
|------------------------------------------------------------|
|-----7------------------5-----------------------------------|

Verse

|------------------------------------------------------------|
|-----7-----7-----7----/12------12-----12-----12-----12------|
|--------0-----0-----0-------0------0------0------0------0---|
|------------------------------------------------------------|
|-----5----------------/10-----------------------------------|
|------------------------------------------------------------|
      
|------------------------5------5------5---------------------|
|-----7-----7-----7---------------------------8-------7------|
|--------0-----0-----0-------0------0------0------0------0---|
|------------------------------------------------------------|
|------------------------------------------------------------|
|-----7------------------5-----------------------------------|

|------------------------------------------------------------|
|-----7-----7-----7----/12------12-----12-----12-----12------|
|--------0-----0-----0-------0------0------0------0------0---|
|------------------------------------------------------------|
|-----5----------------/10-----------------------------------|
|------------------------------------------------------------|


|------------------------5------5------5---------------------|
|-----7-----7-----7---------------------------8-------7------|
|--------0-----0-----0-------0------0------0------0------0---|
|------------------------------------------------------------|
|------------------------------------------------------------|
|-----7------------------5-----------------------------------|

|------------------------------------------------------------|
|-----7-----7-----7----/12------12-----12-----12-----12------|
|--------0-----0-----0-------0------0------0------0------0---|
|------------------------------------------------------------|
|-----5----------------/10-----------------------------------|
|------------------------------------------------------------|

|------------------------5------5------5---------------------|
|-----7-----7-----7---------------------------8-------7------|
|----

We Could Happen Tabs – Aj Rafael V4

 Thank you for taking your time to learn my version of Aj Rafael's "We Could Happen".  and
it has been done completely by ear. Please comment corrections if needed. Thank you :)

This tab is specifically for the ukulele

Verse/Intro*:
G|-0-0-2-4-0-9-7-4-0-2-4-2-----------------------5-4-2-4-0-0-2-4-0-9-7-12-0-2-4-9-8-7-6-5-----------------|
C|-----------------------------------2-----1--------------------------------------------------2-----1-----|
E|-------------------------3-2-0-2-3---2-3---2-3------------------------------------------2-3---2-3---2-3-|
A|--------------------------------------------------------------------------------------------------------|

G|-5-4-2-4-|
C|---------|
E|---------|
A|---------|

Chorus:
G|-4-0-----------------------0---0---0-------0-----------------------0---0---0-----------------------------|
C|---------------------------------------------------------------------------------------------------------|
E|---------------2-------------0-------------------------2-------------0-----------------------------------|
A|-----5-3-2-0-0---5-3-2-0-2-------1---5-3-2---5-3-2-0-0---5-3-2-0-2-------1---5-3-------------------------|

Bridge:
G|----------------0---0----------------0------------------0---0-------------------|
C|--------------------------------------------------------------------------------|
E|----------------------0---------------------------------------0-----------------|
A|-2-5-9-10-2-2-0---0-----2-5-9-10-2-0---0-2-5-9-10-2-2-0---0-----7-7-7-9-10-9**--|

*Play the first part not the repeat
**Could be "14-13" but my ukulele only goes up to 12

Erase Me Tabs – Kid Cudi V4

 -------------------------------------------------------------------------------
                             Kid Cudi - Erase Me
-------------------------------------------------------------------------------
: Mathosh


Tuning:



e|---------------------------------------------------------------------------|
B|---------------------------------------------------------------------------|
G|---------------------------------------------------------------------------| }x4
D|---------------------------------------------------------------------------|
A|-7-7-7-7--11-11-11-11-4-4-4-4-4-4-4-4--------------------------------------|
E|-5-5-5-5--9--9--9--9--2-2-2-2-2-2-2-2--------------------------------------|


e|---------------------------------------------------------------------------|
B|---------------------------------------------------------------------------|
G|---------------------------------------------------------------------------|
D|---------------------------------------------------------------------------|
A|-12-12-12-12--11-11-11-11-9-9-9-9------------------------------------------|
E|-10-10-10-10--9--9--9--9--7-7-7-7------------------------------------------|

e|---------------------------------------------------------------------------|
B|---------------------------------------------------------------------------|
G|---------------------------------------------------------------------------|
D|---------------------------------------------------------------------------|
A|-12-12-12-12--11-11-11-11-14-14-14-14-14-14-14-14--------------------------|
E|-10-10-10-10--9--9--9--9--12-12-12-12-12-12-12-12--------------------------|


e|---------------------------------------------------------------------------|
B|---------------------------------------------------------------------------|
G|---------------------------------------------------------------------------|
D|---------------------------------------------------------------------------|
A|-7-7-7-7-7-7-7-7--2-2-2-2-2-2-2-2--4-4-4-4-4-4-4-4--12-12-12-12-12-12-12-12|
E|-5-5-5-5-5-5-5-5--0-0-0-0-0-0-0-0--2-2-2-2-2-2-2-2--10-10-10-10-10-10-10-10|







************************************

| /   slide up
| \   slide down
| h   hammer-on
| p   pull-off
| ~   vibrato
| +   harmonic
| x   Mute note
| b   Bend
| pb  Pre-bend
| br  Bend release
| pbr Pre-bend release
| brb Bend release bend

************************************

Severus And Stone chords – Radical Face V4

 I didn't find the other tabs to be that accurate, here's what the song sounds to me
Surprisingly the tuning is standard, so if you, like Radical Face, are used to tune your guitar half
a step down, you'll have to put a capo on the 1st fret, if not you're ok to go.

TUNING: E A D G B E (Standard)

 G : 320033
 G *:320003


 G A D D/F# G A 
All the trees stood like skeletons
 D G D G A 
silhouettes of spilled ink
 D D/F# 
and the snow fell in sheets
 Dsus2 Bm 
and got wrapped around our feet
                        A 
we built the fire evermore
                             G 
with winter beating at the door

 D G A D D/F# G A 
Brother's eyes were getting heavier
 D G D G A 
his boney hands cold and white
 D D/F# 
and I could hear his ragged breathing
 Dsus2 Bm 
like the wind along a knife
                                A 
there beside  him through the night
                      G 
in the hum of candlelight 
                       D 
I no longer felt the time

 D D F#m     x2
Oooh...

 D Dmaj7 F#m 
Brother woke just after midnight
                              D 
and he didn't make a sound
                               Dmaj7 
and as he climbed from out of bed 
                                F#m 
with severed rings around his head
                            G 
his feet didn't touch the ground
                      A 
I could feel it then
             Bm 
a tiny miracle
                   D 
so I followed him
            G 
into the woods
                           A 
crossed beneath the trees
           Bm 
but only I
                       D 
left my prints in tow
             G 
he was afloat
                    A 
found a lonely tree
         Bm 
and tied 
                          D 
himself within its limbs
                           G 
and he said to me these words:
                       A 
don't you fear for me,
                            D 
I am where I'm supposed to be.

 D D6 D G 
and when I woke he was gone
                        G *             G Bm 
and I was wrapped in blankets on the lawn
 
the sky was blue and my skin matched the hue
              G 
and I could hear mother crying in your room
       A A7       
from here on out I wear this face for both of us

 D G A Bm D  x4

 D

Moondance chords – Van Morrison V4

 Explanation:
The timing to the lyrics can get confusing, but just get a little loose with the syllables
and rythme, you'll do fine. Did my best to place the chords directly above where they enter
in relation to the album version of Moondance. 

  Am Bsus4 Am7 Bm7    
--0-----0-------0----0---
--1-----3-------5----3---
--2-----0-------5----4---
--2-----4-------5----4---
--0-----0-------0----0---
-------------------------

INTRO
 Am Bsus4 Am7 Bm7  (two times)

[Verse 1]
               Am Bsus4 Am7 Bm7 
Well it's a marvelous night for a moondance with the 
 Am Bsus4 Am7 Bm7 
stars up above in your eyes
      Am Bsus4 Am7 Bm7 
a fantabulous night to make romance 'neath the 
 Am Bsus4 Am7 Bm7 
color of October skies

          Am Bsus4 Am7 Bm7 
All the leaves on the trees are falling  to the
 Am Bsus4 Am7 Bm7 
sounds of the breezes that blow
         Am Bsus4 Am7 Bm7 
and i'm trying to place to the calling  of your 
 Am Bsus4 Am7 Bm7  
heartstrings that play soft and low

[PreChorus]
              Dm7 Am 
You know the night’s magic seems to 
 Dm7 Am 
Whisper and hush  you know the
 Dm7 Am Dm Dm Dm 
Soft moonlight seems to shine 
               E E E 
In your blush

[Chorus]
      Am Dm7 Am Dm7 
can I just have one more moondance with 
   Am Dm7 Am E7   
you        my love
      Am Dm7 Am Dm7 
can I just make some more romance with 
    Am Dm7 Am E7 
you        my love

Interlude
 Am Bsus4 Am7 Bm7  (two times)


[Verse 2]
        Am Bsus4 Am7 Bm7 
Well I want to make love to you tonight
       Am Bsus4 Am7 Bm7 
I can't wait til the morning has come
        Am Bsus4 Am7 Bm7 
and I know now the time is just right and straight 
   Am Bsus4 Am7 Bm7 
into my arms you will run
          Am Bsus4 Am7 Bm7 
when you come my heart will be waiting   to make 
 Am Bsus4 Am7 Bm7 
sure that you're never alone
           Am Bsus4 Am7 Bm7  
there and then all my dreams will come true dear
           Am Bsus4 Am7 Bm7 
there and then I will make you my own

[PreChorus 2]
           Dm7 Am 
And every time I touch you, you just 
 Dm7 Am 
  Tremble inside 
         Dm7 Am Dm Dm Dm 
then I know how much you want me, that
                E E E 
you can’t hide

[Chorus]
      Am Dm7 Am Dm7 
can I just have one more moondance with 
   Am Dm7 Am E7   
you        my love
      Am Dm7 Am Dm7 
can I just make some more

Harvest Moon chords – Neil Young V4

 Intro Riff    D Bm/D Dmaj7    (4)

 Em7 D 
   Come a little bit closer, hear what I have to say
 Em7 D 
   Just like children sleepin’, we could dream this night away
 G D Bm/D Dmaj7  (2)
   But there’s a full moon risin’, let’s go dancin’ in the light
 G D Bm/D Dmaj7  (2)
   We know where the music’s playin’, let’s go out and feel the night

 A7sus4 A7 
   Because I’m still in love with you, I want to see you dance again
 A7sus4 A7 D Bm/D Dmaj7  (4)
   Because I’m still in love with you, on this harvest moon

 Em7 D 
   When we were strangers, I watched you from afar
 Em7 D 
   When we were lovers, I loved you with all my heart
 G D Bm/D Dmaj7  (2)
   But now it’s gettin’ late and the moon is climbin’ high
 G D Bm/D Dmaj7  (2)
   I want to celebrate, see it shinin’ in your eye

 A7sus4 A7 
   Because I’m still in love with you, I want to see you dance again
 A7sus4 A7 D Bm/D Dmaj7  (4)
   Because I’m still in love with you, on this harvest moon

[SOLO]

 Em7 D Em7 D G D Bm/D Dmaj7  (2)
 G D Bm/D Dmaj7  (2)

 A7sus4 A7 
   Because I’m still in love with you, I want to see you dance again
 A7sus4 A7 D Bm/D Dmaj7  (4)    D 
   Because I’m still in love with you, on this harvest moon


CHORDS

D      0  0  0  7  7  5
Bm/D   0  0  0  7  7  7
Dmaj7  0  0  0  11 10 9
Em7    2  2  0  0  0  0
G      5  x  0  0  0  3
A7sus4 x  0  2  0  3  0
A7     x  0  2  0  2  0

During the first two lines of each verse, the Riff can be played around the D chord:

D      0  0  0  2  3  2
Bm/D   0  0  0  4  3  2
Dmaj7  0  0  0  2  2  2

Harmonics

Em7    x  7  x  12 12 12

Three Cheers For Five Years chords – Mayday Parade V4

 Since I've yet to find a tab for this in the right key, let alone with the right words or all the chords where
they should be - here y'all go. I love this song so I thought it'd be nice to share a more accurate version...
I hope I've done it justice. This is only my second tab... please rate and comment, it would be helpful! 
- Charlie :)

Key: B

Tuning: Standard EADGBe

~ hold chord
/ repeat chord (strum down)

Chords:

B    [799877] or [223332]
 F#    [244322]
 G#m   [466444]
 E     [022100]

Intro: (the 4th section isn't quite right because it's hard to hear, but this is how I play it)

          B F# G#m F# 
e|---------2-------|---------2-------|---------2-------|---------2-------|
B|---0---0---0---0-|---0---0---0---0-|---0---0---0---0-|---0---0---0---0-|
G|-4---4-------4---|-3---3-------3---|-1---1-------1---|-----------------|
D|-----------------|-----------------|-----------------|-4---4-------4---|
A|-----------------|-----------------|-----------------|-----------------|
E|-----------------|-----------------|-----------------|-----------------|
         x2                x2                x2                x2

Verse 1: (you can repeat the intro or play the chords below)

                                B 
I swear that you don't have to go
                                 F# 
I thought we could wait for the fireworks
                                  E  
I thought we could wait for the snow
                          F# 
To wash over Georgia and kill the hurt
                                 B 
I thought I could live in your arms
                          F# 
And spend every moment I had with you
                             E  
Stay up all night with the stars
                              F# 
Confess all the faith that I had in you (I had in you)


Refrain:

 G#m F# E 
  To late, I'm sure and lonely
               E 
Another night, another dream wasted on you
 G#m F# E 
  Just be here now against me
                   E  ~
You know the words so sing along for me baby


Chorus:

 B E G#m 
For heaven's sake I know you're sorry
                    E 
But you won't stop crying
           F# B 
This anniversary may never be the same
          E G#m 
Inside I hope you know I'm dying
                 E 
With my heart beside me
              F# E 
In shattered pieces that may never be replaced
          F#          //        /
And if I died right now you'd never be the same


Interlude 1: 

          B F# G#m              
e|---------2-------|---------2-------|-2~~-222222222222|
B|---0---0---0---0-|---0---0---0---0-|-0~~-000000000000|
G|-4---4-------4---|-3---3-------3---|-1~~-111111111111|
D|-----------------|-----------------|-----222222222222|
A|-----------------|-----------------|-----222222222222|
E|-----------------|-----------------|-----------------|
         x2                x2                               

Verse 2:

                            G#m 
I thought with a month of apart
                           F# 
Together would find us an opening
                                  E 
And moonlight would provide the spark
                          E 
And that I would stumble across the key
                               G#m 
Or break down the door to your heart
                          F# 
Forever could see us not you and me
                              E 
And you'd help me out of the dark
                             E 

Dopethrone Tabs – Electric Wizard V4

 -------------------------------------------------------------------------------
                             DOPETHRONE - Electric Wizard
-------------------------------------------------------------------------------
: Anonymous
 tcdalton215



Tuning: B  E  A  D  Gb b

Opening/Riff 1a
(if you would like, you could slide 3/5 instead of hammer ons):
b |---------------------------------------------------------------------------|
Gb|---------------------------------------------------------------------------|
D |---------------------------------------------------------------------------|
A |---------------------------------------------------------------------------|
E |-7--7-------5-5/7-7--5/7-7-------------------------------------------------|
B |-0--0---6b--3-3/5-5--3/5-5-------------------------------------------------|

Riff 1b
b |---------------------------------------------------------------------------|
Gb|---------------------------------------------------------------------------|
D |---------------------------------------------------------------------------|
A |---------------------------------------------------------------------------|
E |-7--7----------------------------------------------------------------------|
B |-0--0---6b--3-3h5-5~-3h5-5~------------------------------------------------|

During the verses, you may play either variation of Riff 1a or 1b

Pre-Chorus
b |---------------------------------------------------------------------------|
Gb|---------------------------------------------------------------------------|
D |---------------------------------------------------------------------------|
A |---------------------------------------------------------------------------|
E |-7--7--7----5/7\5----------------------------------------------------------|
B |-0--0--0--0-3/5\3----------------------------------------------------------|

Fill-riff between end of Pre-Chorus and start of Chorus
b |---------------------------------------------------------------------------|
Gb|---------**Gradually bend this power chord while---------------------------|
D |--------**strumming in rhythm simultaneously ------------------------------|
A |-------**------------------------------------------------------------------|
E |-/7--7-7b---5--5-5---------------------------------------------------------|
B |-/5--5-5b---3--3-3---------------------------------------------------------|

Chorus
B |-------------------------*Here you can slide these power*------------------|
Gb|-------------------------*chords or strum them normally*-------------------|
D |--------------------------*                           *--------------------|
A |---------------------------*                         *--/5-----------------|
E |-7----7b(8)r7-----5/7-7-7-7--10\9/10\9/10\9/10\9/10\5------7--or-/10-14----|
B |-0----0-(0)(0)--0-3/5-5-5-5---8\7/-8\7/-8\7/-8\7/-8\3------0---------12----|

Bridge
b |---------------------------------------------------------------------------|
Gb|---------------------------------------------------------------------------|
D |---------------------------------------------------------------------------|
A |---------------------------------------------------------------------------|
E |--7------7-----------------------------------------------------------------|
B |--0------0---6b------------------------------------------------------------|

Just improvise the solos, don't forget to do some bluesy bends while you're at it.

************************************

| /   slide up
| \   slide down
| h   hammer-on
| p   pull-off
| ~   vibrato
| x   Mute note
| b   Bend
| r   release Bend
|(0)  Ghost note 

************************************

Broken Together chords – Casting Crowns V4

 Broken Together
Casting Crowns
Capo 1

Intro:
 E D A/E E D A/E E 

Verse 1:
              D A/E E 
What do you think about when you look at me
              D A/E E 
I know were not the fairytale you dreamed we'd be
             G A/E E 
You wore the veil, you walked the aisle, you took my hand
                    D A/E 
And we dove into a mystery

 E D A/E E 

Verse 2:
       D A/E E 
How I wish we could go back to simpler times
                D A/E E 
Before all our scars and all our secrets were in the light
              G A/E E 
Now on this hallowed ground, we've drawn the battle lines
                 D A/E 
Will we make it through the night

Pre Chorus:
 G F#m G 
It's going to take much more than promises this time
                         A/E 
Only God can change our minds

Chorus:
       E B/E 
Maybe you and I were never meant to be complete
                  D A/E       
Could we just be broken together
 E B/E 
If you can bring your shattered dreams and I'll bring mine
                        D A/E             
Could healing still be spoken and save us
 F#m G#m A/E E   
The only way well last forever is broken together

 E D A/E E D A/E E 

Verse 3:
        D A/E E 
How it must have been so lonely by my side
                  D A/E E 
We were building kingdoms and chasing dreams and left love behind
             G A/E E 
I'm praying God will help our broken hearts align
                   D A/E 
And we won't give up the fight

Pre Chorus:
 G F#m G 
It's going to take much more than promises this time
                         A/E 
Only God can change our minds

Chorus:
       E B/E 
Maybe you and I were never meant to be complete
                  D A/E       
Could we just be broken together
 E B/E 
If you can bring your shattered dreams and I'll bring mine
                        D A/E             
Could healing still be spoken and save us
 F#m G#m A/E F#m   
The only way well last forever is broken together

Interlude:
 F#m A/E E F#m A/E E D A/E F#m E 

Chorus:
       E B/E 
Maybe you and I were never meant to be complete
                  D A/E       
Could we just be broken together
 E B/E 
If you can bring your shattered dreams and I'll bring mine
                        D A/E             
Could healing still be spoken and save us
 F#m G#m A/E E   
The only way well last forever is broken together

Outro:
 E D A/E E D A/E