Tag: v5

Hallelujah chords by Jeff Buckley V5

[Intro]
C Am C Am


[Verse 1]
  C                 Am
I heard there was a secret chord
     C                   Am
That David played and it pleased the lord
    F                G               C        G
But you don't really care for music, do you?
        C                  F           G
Well it goes like this the fourth, the fifth
    Am                 F
The minor fall and the major lift
    G            E7             Am
The baffled king composing hallelujah


[Chorus]
     F           Am          F           C    G   C      G
Hallelujah, hallelujah, hallelujah, hallelu-u-u-u-jah ....


[Verse 2]
          C                        Am
Well your faith was strong but you needed proof
    C               Am
You saw her bathing on the roof
    F              G             C            G
Her beauty and the moonlight overthrew you
C                   F       G
She tied you to her kitchen chair
    Am                        F
She broke your throne and she cut your hair
    G                  E7            Am
And from your lips she drew the hallelujah


[Chorus]
     F           Am          F           C    G   C      G
Hallelujah, hallelujah, hallelujah, hallelu-u-u-u-jah ....


[Verse 3]
C              Am
Baby I've been here before
     C                       Am
I've seen this room and I've walked this floor
  F             G             C          G
I used to live alone before I knew you
C                          F      G
I've seen your flag on the marble arch
    Am                    F
But love is not a victory march
       G               E7          Am
It's a cold and it's a broken hallelujah


[Chorus]
     F           Am          F           C    G   C      G
Hallelujah, hallelujah, hallelujah, hallelu-u-u-u-jah ....


[Verse 4]
     C                         Am
Well there was a time when you let me know
       C            Am
What's really going on below
    F             G               C        G
But now you never show that to me do you
      C             F        G
But remember when I moved in you
        Am            F
And the holy dove was moving too
    G               E7            Am
And every breath we drew was hallelujah


[Chorus]
     F           Am          F           C    G   C      G
Hallelujah, hallelujah, hallelujah, hallelu-u-u-u-jah ....


[Verse 5]
      C               Am
Well, maybe there's a god above
    C             Am
But all I've ever learned from love
    F                G           C          G
Was how to shoot somebody who outdrew you
     C                  F       G
It's not a cry that you hear at night
     Am                 F
It's not somebody who's seen the light
       G               E7          Am
It's a cold and it's a broken hallelujah


[Outro]
     F           Am          F           C    G   C      G
Hallelujah, hallelujah, hallelujah, hallelu-u-u-u-jah ....

Oh Darling chords – The Beatles V5

 

Oh Darling!  ♫ Lennon/McCartney ♫ 



E+      A E 
   Oh! Darling    please believe me
 F#m D 
  I'll never do you no harm
   Bm E7 
Believe me when I tell you
 Bm E7 A D A   
  I'll never do you no harm 
----------


 E A E 
   Oh! Darling   if you leave me
 F#m D 
  I'll never make it alone
 Bm E7 
 Believe me when I beg you  ooooh
 Bm E7 A D A  
 Don't ever leave me alone
----------


 A7 D F7 
   When you told me   you didn't need me anymore
          A A7 A A7 
Well you know I nearly broke down and cried
          B7 
When you told me   you didn't need me anymore
         E7            F75           E7   E+
Well you know I nearly fell down and died...
----------


     A E 
Oh! Darling   if you leave me
 F#m D 
  I'll never make it alone
   Bm E7 
Believe me when I tell you
 Bm E7 A D A           
  I'll never do you no harm      (Believe me, darling)
----------


 A7 D F7 
   When you told me  oooooh you didn't need me anymore
          A A7 A A7 
Well you know I nearly fell down and cried
          B7 
When you told me   you didn't need me anymore
         E7            F75           E7   E+
Well you know I nearly fell down and died...
----------


     A E 
Oh! Darling   please believe me
 F#m D 
I'll never let you down    (“oh believe me Darling”)
   Bm E7 
Believe me when I tell you  oooooh
 Bm E7 A D A Bb7 A7 
  I'll never do you no harm

Enjoy and plesae rate!!


Blow Me Away Tabs – Breaking Benjamin V5

 Song: Blow Me Away
 Halo 2 Original Soundtrack
Artist: Breaking Benjamin
Release Date: November 3, 2004



Guitar 1: Rhythm
Guitar 2: Lead

Intro:
Guitar 1 and 2(Guitar 2 with octave generator)
D|------------------------------------------------------------
A|------------------------------------------------------------
F|------------------------------------------------------------
C|-0--12-0-12--0--12-0-12--0-10--0--12-0-12--0--12-0-12--7/10-
G|-0-----------0-----------0-10--0-----------0-----------7/10-
C|-0-----------0-----------0-10--0-----------0-----------7/10-

D|---------------------------------------------------------------
A|---------------------------------------------------------------
F|---------------------------------------------------------------
C|-0-0--12-0-12--0--12-0-12--0-10--0-0--12-0-12--0--12-0-12------
G|-0-0-----------0-----------0-10--0-0-----------0---------------
C|-0-0-----------0-----------0-10--0-0-----------0-----------3-2-

Verse:
Guitar 1
D|------------------------------------------------------------
A|------------------------------------------------------------
F|------------------------------------------------------------
C|-0----------------------------------------------------------
G|-0----------------------------------------------------------
C|-0----------------------------------------------------------

Guitar 2
D|--------------------------10-------------------------17-----
A|-----------------------------10-------------------20--------
F|-----------------------12----------------------19-----------
C|-0------------------12----------------------19--------------
G|-0----------------------------------------------------------
C|-0----------------------------------------------------------

Pre-Chorus pt. 1:
Guitar 1
D|-------------------------------------------------------------------------------
A|-------------------------------------------------------------------------------
F|-------------------------------------------------------------------------------
C|-8--8--8--8--8--8--8--8--10-10-10-10-10-10-10-10-0-0----0-0---0-0-0---0-0--7/10-
G|-8--8--8--8--8--8--8--8--10-10-10-10-10-10-10-10-0-0----0-0---0-0-0---0-0--7/10-
C|-8--8--8--8--8--8--8--8--10-10-10-10-10-10-10-10-0-0--0-0-0---0-0-0-0-0-0--7/10-
                                                      pm-           pm-
Guitar 2
D|--------------------------------------------------------------------------------
A|--------------------------------------------------------------------------------
F|-10-10-10-10-10-10-10-10-12-12-12-12-12-12-12-12-7/14---9/11--7/14----9/11--7---
C|-8--8--8--8--8--8--8--8--10-10-10-10-10-10-10-10--------------------------------
G|-8--8--8--8--8--8--8--8--10-10-10-10-10-10-10-10-5/12---7/9---5/12----7/9---5---
C|-8--8--8--8--8--8--8--8--10-10-10-10-10-10-10-10--------------------------------

Pre-Chorus pt. 2:
Guitar 1
D|-------------------------------------------------
A|-------------------------------------------------
F|-------------------------------------------------
C|-8--8--8--8--8--8--8--8--10-10-10-10-10-10-10-10-
G|-8--8--8--8--8--8--8--8--10-10-10-10-10-10-10-10-
C|-8--8--8--8--8--8--8--8--10-10-10-10-10-10-10-10-
                                                   
Guitar 2
D|-------------------------------------------------
A|-------------------------------------------------
F|-10-10-10-10-10-10-10-10-12-12-12-12-12-12-12-12-
C|-8--8--8--8--8--8--8--8--10-10-10-10-10-10-10-10-
G|-8--8--8--8--8--8--8--8--10-10-10-10-10-10-10-10-
C|-8--8--8--8--8--8--8--8--10-10-10-10-10-10-10-10-

Chorus:
Guitar 1(2x)
D|-------------------------------------------------------------------------
A|-------------------------------------------------------------------------
F|-------------------------------------------------------------------------
C|-0----0-----7--8-8-5---5----5/////12-0----0-----7--8-8-10---10---10-0-10-
G|-0----0-----7--8-8-5---5----5/////12-0----0-----

Trouble chords – Cage The Elephant V5

 C E Am F 

Verse
 C E Am F 
 We were at the table, by the window, the view
 C E Am F 
 Casting shadows, the sun was pushing through
 C E Am F 
 Spoke a lot of words, I don't know if I spoke the truth

Pre Chorus
 Am   (walkdown)  F  (walkup)
Got so much to lose
 Am   (walkdown)  F  (walkup)
Got so much to prove
 Am   (walkdown)    F C E 
God don't let me lose my mind

Chorus
 C E Am 
 Trouble on my left, trouble on my right,
                  F C 
I've been facing trouble almost all my life
          E Am 
My sweet love won't you pull me through
              F C 
Everywhere I look I catch a glimpse of you
               E Am F //
I said it was love and I did it for life, do do do do

Bridge
 C E Am F 
Whoo oo...

Verse
 C E Am F 
 Will it come to pass or will I pass the test
 C E Am F 
 You know what they say: the wicked get no rest
 C E Am F 
 You can have my heart any place, any time

Pre Chorus
Chorus

Instrumental
 E  /  Am  /  F  /  Am G/B 

Chorus

Bridge
 C E Am F 
Whoo oo...

Tag
 Am F 
Got so much to lose
 Am F 
Got so much to prove
 Am F C E Am F Fm C 
God don't let me lose my mind

Walkdown on low E string: 
5-4-3-2-1

Walkup on low E string:
1-2-3-4-5

Eiffeltornet chords – Ted Gärdestad V5

 Jag rekommenderar växelbas typ hela tiden och variera bastonerna för att det ska svänga.
Lägger in lite exempel men kom ihåg att dessa spelas ofta bara ett taktslag. Do your thing!

Den absolut första delen utav introt på piano (dessa toner spelas samtidigt) är tonerna:


Intro:
högerhand : d e eb d c
vänsterhad: f g gb f e

 Ddim/D Ddim/B Ddim/G# Ddim/F E 


Vers:

   E/F# E/G# Am E 
  Jag  såg i tidningen att nu finns det en chans
 Am7 Dm7 
för mig att åka billigt utomlands.
 G C Dm7 E 
Det är bra för mig, men synd om dig (mhmm)
            Am E 
För om jag ser dig le, mot nån annan kis,
 F G C 
tar jag planet till Paris
 G Am7 Dm7 E 
Jag bor på hotell för en kväll, skyll dig själv!

Ref:
            C G6 
Jag tänker hoppa, ner från Eiffeltornet
 E Am Am/G 
om du sviker mig
             F G Am Am/G D7/F# E   (bas=  E F# G# B  )
för jag ska hämnas, om jag lämnas   ensam utan dig.
          C G6 
Mmm, jag hoppar, ner från Eiffeltornet
 E E/G# Am Am/G 
om du lurar mig,
         F G Am Am/G D7/F# F Fm/G# Fsus4/A# C 
men jag hoppas att jag stoo-opp-as i hissen   upp   av      dig.

-Spela Introt-

Vers:
        E/F# E/G# Am E 
   Det är   väl  ganska klart, att du är populär.
 Am7 Dm7 
Men det ställer bara till besvär.
 G C Dm7 E 
Jag blir förbisedd, vilseledd (mhmm)
            Am E 
Du vet att jag begär, en liten bagatell,
 F G C 
jag vill ha dig för mig själv.
 G Am7 Dm7 E 
Var beredd på allt, och framför allt ta det kallt

Ref:
            C G6 
Jag tänker hoppa, ner från Eiffeltornet
 E Am Am/G 
om du sviker mig
             F G Am Am/G D7/F# E    (bas=  E F# G# B  )
för jag ska hämnas, om jag lämnas   ensam utan dig.
          C G6 
ååh, jag hoppar, ner från Eiffeltornet
 E E/G# Am Am/G 
om du lurar mig,
         F G Am Am/G D7/F# F Fm/G# Fsus4/A# C 
men jag hoppas att jag stoo-opp-as i hissen   upp   av      dig.

-Första fem tonerna på introt-


 Am Am/G Am G                  
mm-mm  baahbaah bum badum badum bada ba badiyaa  mmba mmba baa
 Am Am/G Am G                  
mm-mm  baahbaah bum badum badum bada ba badiyaa 


            C G6 
Jag tänker hoppa, ner från Eiffeltornet
 E Am Am/G 
om du sviker mig
             F G Am Am/G D7/F# E    (bas=  E F# G# B  )
för jag ska hämnas, om jag lämnas   ensam utan dig.
          C G6 
Mmm, jag hoppar, ner från Eiffeltornet
 E <

Superwoman chords – Alicia Keys V5

 Intro:  Am Ab +( Ab C E  with  Ab  base)  C/G Asus/F#  (2X) 
 F C (arpeggio) F C C G/B Am C/G 
  Everywhere I'm turning
 F C/E G/D G 
  Nothing seems complete
 C G/B Am C/G 
I stand up and I'm searching
 F C/E Dm G 
For the better part of me
 C G/B Am C/G 
I hang my head from sorrow
 F C/E Dm G 
state of humanity
 C G/B Am C/G 
I wear it on my shoulders
       F G C 
Gotta find the strength in me

 Am Ab +  C/G D/F# 
Cause I am a Superwoman
 F C 
Yes I am
 F G 
Yes she is
 Am      Ab+
Even when I'm a mess
                   C/G      
I still put on a vest
                  D/F# 
With an S on my chest
Oh yes
       F C F C 
I'm a Superwoman

 C G/B Am C/G 
For all the mothers fighting
 F C/E G/D G 
For better days to come
 C G/B Am C/G 
And all my women, all my women sitting here trying
 F C/E Dm G 
To come home before the sun
 C G/B          
And all my sisters
 Am C/G 
Coming together
     F C 
Say yes I will
 F G 
Yes I can

 Am Ab +  C/G D/F# 
Cause I am a Superwoman
 F C 
Yes I am
 F G 
Yes she is
 Am Ab + 
Even when I'm a mess
                   C/G  
I still put on a vest
                  D/F# 
With an S on my chest
Oh yes
       F C F C 
I'm a Superwoman
          F               
When I'm breaking down
      Fm 
And I can't be found
And I start to get weak
Cause no one knows
Me underneath these clothes
But I can fly
We can fly, Oh

 Am       Ab+  C/G D/F# 
Cause I am a Superwoman
 F C 
Yes I am
 F G 
Yes she is
Am     Ab+ 
Even when I'm a mess
                   C/G  
I still put on a vest
                  D/F# 
With an S on my chest
Oh yes
       F C 
I'm a Superwoman
 F G 
Yes She is
   
Oh Let me tell you 
 C G/B Am C/G 
I am a Super-woman oh 
 F C 
Yes I aaa---mmmm
 F G 
Yes she is(Oh ya)
(Tell him)
   Am Ab + 
Cuz Even when I'm a mess
                   C/G  
I still put on a vest
                  D/F# 
With an S on my chest
Oh yes
       F C 
I'm a Superwoman
 F C 
Yes I Am
           F C 
And I'm a Superwoman (That's Right)
         F C 
(Oh Ya) Yes You  Are
 Am Ab +    C/G D/F# 
Da da da    da   da
 Am Ab +    C/G D/F# 
Da    da    da   da
 Am Ab +    C/G D/F

Dahsyat chords – Mojo V5

 (Intro)
 C C E 
Aku cinta kamu
 Am Gm 
Lebih dari hatiku mampu
 F E 
Pasti jiwa takkan bisa
 Dm G 
Hidup tanpa hadirnya kamu

 F 
Sungguh dahsyatnya
 G Em 
Cintaku kepada kamu
 Am Dm 
Aku mohon jangan pergi
 G C 
Menyiksaku dengan rindu

 C E 
Kita dua hati
 Am Gm 
Selamanya takkan terpisah
 F Em 
Kau dan aku punya cinta
 Dm G 
Paling terindah di dunia

 F 
Sungguh dahsyatnya
 G Em 
Cintaku kepada kamu
 Am Dm 
Aku mohon jangan pergi
 G C 
Menyiksaku dengan rindu

 Dm C 
Ohh... ohh...

 F 
Tiada yang bisa
 G Em 
Mengisi ruang di hati
 Am Dm 
Aku mohon jangan pergi
 G Fm 
Jiwa ini perlu kamu

 Am D 
Ohh... ohh...
 G 
Tetap cinta selama-lamanya

 F 
Sungguh dahsyatnya
 G Em 
Cintaku kepada kamu
 Am Dm 
Aku mohon jangan pergi
 G C 
Menyiksaku dengan rindu

 Dm C 
Ohh... ohh...

 F 
Tiada yang bisa
 G Em 
Mengisi ruang di hati
 Am Dm 
Aku mohon jangan pergi
 G Fm 
Jiwa ini perlu kamu

Lirik ni hakcipta http://famf-tower.blogspot.com/2015/01/guitar-chords-mojo.html
aku tlg share je.. :)

Officially Missing You chords – Tamia V5

 [Intro]
  G F#m B7 Em7 Dm7 G C7 Bm7 Em7 Am D7 

[Verse One]
                 G 
All I hear is raindrops
   F#m7 Bm7 
Falling on the rooftop
   Em7 Dm7 G 
Oh baby tell me why'd you have to go
              C 
Cause this pain I feel
             Bm Em7 
It wont go away
      Am D7 
And today I'm officially missing you
 G F#m7 
I thought that from this heartache
 Bm7 Em7 
I could escape
        Dm7 G C 
But I fronted long enough to know
                Bm7 Em7 
There ain't no way
    Am 
And today
        D 
I'm officially missing you


[Chorus]
  G F#m7 Bm Em 
Oh can't nobody do it like you
       Dm7 G C 
Said every little thing you do
                  Bm Em7 
Hey baby say it stays on my mind
    Am D 
And I, I'm officially


[Verse Two]
                G 
All I do is lay around
      F#m7 Bm7 
Two years full of tears
       Em7 Dm7 G 
From looking at your face on the wall
              C Bm7 Em7 
Just a week ago you were my baby
                   Am 
Now I don't even know you at all
           D 
I don't know you at all
          C F#m7 B 
Well I wish that you would call me right now
        Em7 Dm7 G 
So that I could get through to you somehow
         C7 Bm7 Em7 
But I guess it's safe to say baby safe to say
      Am D 
That I'm officially missing you


[Chorus]
  G F#m7 Bm Em 
Oh can't nobody do it like you
       Dm7 G C 
Said every little thing you do
                  Bm Em7 
Hey baby say it stays on my mind
    Am D 
And I, I'm officially


[Bridge]
          F G C7 
Well I thought I could just get over you baby
        F G C Bm7 
But I see that's something I just can't do
          Am7 Bm 
From the way you would hold me
          Em Dm C#m 
To the sweet things you told me
     Am7 
I just can't find a way
     D 
To let go of you


[Chorus]
  G F#m7 Bm Em7 
Oh can't nobody do it like you
       Dm7 G C 
Said every little thing you do
                  Bm Em7 
Hey baby say it stays on my mind
    Am D 
And I, I'm officially
     G F# 
It's official
  Em7 Dm        
You know that I'm missing you
   G 
Yeah yes
                  C7 Bm7 Em7 
All I hear is raindrops
     Am D G 
And I'm officially missing you


It Wont Be Long chords – Beatles V5

 ---------------------------------------------------------------------------
                It Won’t be Long – The Beatles
---------------------------------------------------------------------------
: maguri
Tuning: Standard

The Beatles
It Won’t be Long (1963)
(Lennon/McCartney)

From: "With the Beatles" (UK) / “Meet the Beatles” (US)

---------------------------------------------------------------------------
CHORDS

          E-A-D-G-B-e
A7-9      x-0-2-3-2-3  or (which I like better): x-1-2-0-2-0 (= A#dim7)

D#aug     x-6-5-4-4-x
D6        x-5-4-4-3-x
C#7       x-4-3-4-2-x

G6        x-x-5-4-3-0
F#7       x-x-4-3-2-0
Fmaj7     x-x-3-2-1-0
Emaj7     0-2-2-4-4-4

---------------------------------------------------------------------------

CHORUS
             C#m 
It won't be long yeah, yeah, yeah
             E 
It won't be long yeah, yeah, yeah
             C#m A A7-9    |  E  | % |
It won't be long yeah, till I belong to you


VERSE
 E C E 
 Every night when everybody has fun
 E C E 
 Here am I sitting all on my own


CHORUS
             C#m 
It won't be long yeah, yeah, yeah
             E 
It won't be long yeah, yeah, yeah
             C#m A A7-9    |  E  | % |
It won't be long yeah, till I belong to you


MIDDLE 8
           E D#aug 
Since you left me, I'm so alone
            D6 C#7 
Now you're coming, you're coming on home
 A B 
I'll be good like I know I should
               F#m B 
You're coming home, you're coming home


VERSE
 E C E 
 Every night the tears come down from my eyes
 E C E 
 Every day I've done nothing but cry


CHORUS
             C#m 
It won't be long yeah, yeah, yeah
             E 
It won't be long yeah, yeah, yeah
             C#m A A7-9    |  E  | % |
It won't be long yeah, till I belong to you


MIDDLE 8
           E D#aug 
Since you left me, I'm so alone
            D6 C#7 
Now you're coming, you're coming on home
 A B 
I'll be good like I know I should
               F#m B 
You're coming home, you're coming home, so ...


VERSE
 E C E 
 Every day we'll be happy I know
 E C E 
 Now I know that you won't leave me no more


CHORUS (+ coda)
             C#m 
It won't be long yeah, yeah, yeah
             E 
It won't be long yeah, yeah, yeah
             C#m   
It won't be long yeah
      A G6 F#7 Fmaj7 Emaj7 
Till I belong to you
   (break)

Greensleeves Tabs – Misc Traditional V5

 Greensleeves by King Henry VIII
U can play it with capo on 4 or without capo, but if u want to sing along with it, i prefer with capo on 4.
This is how it goes.


 Am                     G                 Am                E
|-----|--------0--1--0--|-----------------|-----------------|----------------|
|-----|--1--3-----------|--3--0--------0--|--1--------------|--0-----------0-|
|--2--|-----------------|--------0--2-----|-----2--2--1--2--|-----1-----2----|
|-----|-----------------|-----------------|-----------------|--------2-------|
|-----|--0-----0--------|-----------------|--0-----0--------|--2-------------|
|-----|-----------------|--3-----3--------|-----------------|--------0-------|

Am                G                 Am       E           Am          Am
|--------0--1--0--|-----------------|--------------------|-----------|-----0--|
|--1--3-----------|--3--0--------0--|--1--0--------------|-----------|--1-----|
|-----------------|--------0--2-----|--------2--1-----1--|--2-----2--|--------|
|-----------------|-----------------|--------------4-----|-----2-----|--------|
|--0-----0--------|-----------------|--0-----0--2--------|--0-----0--|--------|
|-----------------|--3-----3--------|--------------------|-----------|--------|


 C              G                 Am                E
|--3-3-3--1--0--|-----------------|-----------------|-----------------|
|---------------|--3--0--------0--|--1--------------|--0-----------0--|
|---------------|--------0--2-----|-----2--2--1--2--|-----1-----2-----|
|---------------|-----------------|-----------------|--------2--------|
|--3-3-3--------|-----------------|--0-----0--------|--2--------------|
|---------------|--3-----3--------|-----------------|--------0--------|

 C              G                 Am       E           Am         Amaj7
|--3--3--1--0---|-----------------|--------------------|----------|--0--|
|----1----------|--3--0--------0--|--1--0--------------|----------|--2--|
|---------------|--------0--2-----|--------2--1-----1--|--2---2---|--1--|
|---------------|-----------------|--------------4-----|----2-----|--2--|
|--3--3---------|-----------------|--0-----0-----------|--0---0---|--0--|
|---------------|--3-----3--------|-----------0--------|----------|-----|

Rainbow Connection chords – Jason Mraz V5

 ----------------------------------------------------------------------------------------
                           THE RAINBOW CONNECTION - Jason Mraz
                              
----------------------------------------------------------------------------------------

     D A Asus4 Dmaj7 C#sus2  (I prefer C#m)
  x_____      ______      ______      x_____      x_____
5 ╪╪╪╪╪╪    5 ╪╪╪╪╪╪    5 ╪╪╪╪╪╪    5 |╪╪╪╪╪    4 |╪╪╪╪╪ 
  ||||||      |||●||      ||||||      |||●||      ||||||
  ||●●●|      |●●|||      |●●●||      ||●|●|      ||●●||
  ||||||      ||||||      ||||||      ||||||      ||||||
  x57775      577655      577755      x57675      x46644


==INTRO==
e-------------------|
B-------------------|
G----6---6--------7-|
D------7---7----7---| (x2)
A--7----------5-----|
E-5-----------------|


==VERSE==
 A F#m Bm E 
Why are there so many songs about rainbows?
       A F#m D E 
And what's on the other side?
 A F#m Bm E 
Rainbows are visions, but only illusions.    
 A F#m D E 
Rainbows have nothing to hide.


==PRE-CHORUS==
 Dmaj7 
What's so amazing that keeps us stargazing?
 C#sus2 
And what do they think we might see?


==CHORUS==
 Bm E A F#m  
Someday we'll find it, the rainbow connection
      Bm E A Asus4 A E 
The lovers, the dreamers, and me


==VERSE==
 A F#m Bm E 
Have you been half-asleep, and have you heard the voices?
        A F#m D E 
Well I've heard them calling my name   
 A F#m Bm E 
Is this the sweet sound that calls the young sailors?
       A F#m D E 
The voice might be one and the same


==PRE-CHORUS==
 Dmaj7 
I've heard it too many, many, many times to ignore it,
 C#sus2 
What did I think it could be?


==CHORUS==
 Bm E A F#m  
Someday we'll find it, the rainbow connection
      Bm E A Asus4 A E 
The lovers, the dreamers, and me


==CHORUS==
 Bm E A F#m  
Someday we'll find it, the rainbow connection
      Bm E           
The lovers, the dreamers...

...and me
e-------------------|
B-------------------|
G----6---6--------7-|
D------7---7----7---| (x3)
A--7----------5-----|
E-5-----------------|

Something Good Tabs – Alt-J V5

 Hey guys, another song by Alt-J "Something Good",

I've included parts for Guitar 1(top half) and 2(lower half), giving a fuller sound to this song.
Alternatively, you can choose to play parts from Guitar 1 or 2 by combining sections. Enjoy!

: Scapeforce
http://profile.ultimate-guitar.com/scapeforce/

Tuning: Standard EADGBe

~~~~~~~~~~~~~~~~~~~~~~~~~~~~~~~~~~~~~~~~~~~~~~~~~~~~~~~~~~~~~~~~~~~~~~~~~~~~~~~~~~~~~~~~~~~~~~~~~~~~~~~~~~~~~

[Guitar 1]

E|------------------------------2--------------------------------------|
B|----0---0---0---0---0---0---0--3p2p0----0---0---0---0---0---0--0---0-|
G|---------------------------------------------------------------------|
D|---------------------------------------------------------------------| x2
A|--2--22---2--22---2--22---2------------------------------------------|
E|--------------------------------------3--33---3--33---3--33---3--33--|

"Something good..."
e|--------------------------------------|
B|----0--0-----0--0-----0--0-----0--0---|
G|--------------------------------------|
D|--2--22----0--00----------------------| x4
A|-----------------------------2--22----|
E|--------------------3--33-------------| 

e|----------17-14--------------------15p14----------|
B|-----15---------15----15------15---------15----15-|
G|---16--16----------16-------16--16----------16----|
D|--------------------------------------------------| x2
A|--------------------------------------------------|
E|--------------------------------------------------|

"Get high..."
e |--------------------------------------------------------------------------|
B |------0--0------1--1----0--1---0------------0--0----1--1----0--1----0--0--|
G |------0--0------0--0----0--0---0------------2--2----0--0----0--0----0--0--|
D |--------------------------------------------------------------------------| x2
A |--------------3--33-------------------------------3--33-------------------|
E |----0--00-------------3--33---3-----3--2--0--00-----------3--33---3--33---|

"Something good..."
e|--------------------------------------|
B|----0--0-----0--0-----0--0-----0--0---|
G|--------------------------------------|
D|--2--22----0--00----------------------| x4
A|-----------------------------2--22----|
E|--------------------3--33-------------| 

e|----------17-14--------------------15p14----------|
B|-----15---------15----15------15---------15----15-|
G|---16--16----------16-------16--16----------16----|
D|--------------------------------------------------| x4
A|--------------------------------------------------|
E|--------------------------------------------------|

"Forty-eight thousand..."
e |--------------------------------------------------------------------------|
B |------0--0------1--1----0--1---0------------0--0----1--1----0--1----0--0--|
G |------0--0------0--0----0--0---0------------2--2----0--0----0--0----0--0--|
D |--------------------------------------------------------------------------| x2
A |--------------3--33-------------------------------3--33-------------------|
E |----0--00-------------3--33---3-----3--2--0--00-----------3--33---3--33---|

e|----------17-14--------------------15p14----------|
B|-----15---------15----15------15---------15----15-|
G|---16--16----------16-------16--16----------16----|
D|--------------------------------------------------| x16
A|--------------------------------------------------|
E|--------------------------------------------------|

"Get high..."
e |--------------------------------------------------------------------------|
B |------0--0------1--1----0--1---0------------0--0----1--1----0--1----0--0--|
G |------0--0------0--0----0--0---0------------2--2----0--0----0--0----0--0--|
D |--------------------------------------------------------------------------| x2
A |--------------3--33-------------------------------3--33-------------------|
E |----0--00-------------3--33---3-----3--2--0--00-----------3--33---3--33---|

"Forty-eight thousand..."
e |---------------------------------

Wreckage Tabs – Parkway Drive V5

 ^^^^^^^^^^^^^^^^^^^^^^^^^^^^^^^^^^^^^^^^^^^^^^^^^^^^^^^^^^^^^^^^^^^^^^^^^^^^^^^
                          WRECKAGE ~ PARKWAY DRIVE
^^^^^^^^^^^^^^^^^^^^^^^^^^^^^^^^^^^^^^^^^^^^^^^^^^^^^^^^^^^^^^^^^^^^^^^^^^^^^^^

                           (Tuning) B,F#,B,E,G#,C#
   

  (Intro) 

c#|-----------------------|
G#|-----------------------|
E |-----------------------|
B |-----7h8p--------------|  x4       
F#|--0---------8----10----|
B |--0---------8----10----|

c#|-----------------------------------|
G#|-----------------------------------|
E |-----------------------------------|
B |-----7h8p-------7h8p--------8p7----|  x4
F#|--0---------8----------10----------|
B |--0---------8----------10----------|

  (Chorus)
                   "CHISH"
c#|--------------------------------------------|
G#|--------------------------------------------|
E |--------------------------------------------|
B |---------3-------------3----------3---------|  x3
F#|--0---5-----5---3---5-----5---5------5------|
B |--0-------------3-------------5-------------|

c#|--------------------------------------------|
G#|--------------------------------------------|
E |--------------------------------------------|
B |---------3-------------3--------------------|  
F#|--0---5-----5---3---5-----5---5-0-5-8-7-0---|
B |--0-------------3-------------5-0-5-8-7-0---|

  (Verse)

c#|---------------------------------------------------------------|
G#|---------------------------------------------------------------|
E |---------------------------------------------------------------|
B |---------------------------------------------------------------|
F#|--0-0-0-0-5-0-5-0-0-0-0-5-8-77770-0-0-0-0-5-0-5~-5~-55887770---|
B |--0-0-0-0-5-0-5-0-0-0-0-5-8-77770-0-0-0-0-5-0-5~-5~-55887770---|
     * * * *   *   * * * *           * * * *   *       
c#|---------------------------------------------------------------|
G#|---------------------------------------------------------------|
E |-------------------------------------------------5----9--------|
B |-------------------------------------------------x----x--------|
F#|--0-0-0-0-5-0-5-0-0-0-0-5-8-77770-0-0-0-0-5-0-0--3----7--------|
B |--0-0-0-0-5-0-5-0-0-0-0-5-8-77770-0-0-0-0-5-0-0----------------|
     * * * *   *   * * * *           * * * *   * *
c#|---------------------------------------------------------------|
G#|---------------------------------------------------------------|
E |---------------------------------------------------------------|
B |---------------------------------------------------------------|
F#|-70-0-0-0-0-5-0-5-0-0-0-0-5-8-77770-0-0-0-0-5-0-5~-5~-55887770-|
B |-70-0-0-0-0-5-0-5-0-0-0-0-5-8-77770-0-0-0-0-5-0-5~-5~-55887770-|
       * * * *       * * * *           * * * *   *
c#|---------------------------------------------------------------|
G#|---------------------------------------------------------------|
E |-------------------------------------------------5----9--------|
B |-------------------------------------------------x----x--------|
F#|--0-0-0-0-5-0-5-0-0-0-0-5-8-77770-0-0-0-0-5-0-0--3----7-----/--|
B |--0-0-0-0-5-0-5-0-0-0-0-5-8-77770-0-0-0-0-5-0-0-------------/--|
     * * * *       * * * *           * * * *   * *
  (Chorus)

c#|--------------------------------------------|
G#|--------------------------------------------|
E |--------------------------------------------|
B |---------3-------------3----------3---------|  x4
F#|--0---5-----5---3---5-----5---5------5------|
B |--0-------------3-------------5-------------|

  (Riff 1)

c#|----------------------------|
G#|----------------------------|
E |----------------------------|
B |-------7h8p-----------------|  x4       
F#|--0000-------8--0000--10----|
B |--0000-------8--0000--10----|
     ****          ****
  (Riff 2) Tremolo picking

c#|----------------------------|
G#|----------------------------|
E |----------------------------| 
B |----------------------------|       
F#|----------v3-------v5-------|
B |--v2------------------------|

c#|-------

Be Wherever You Are chords – Rebecca Sugar V5

 C B7 
Isn't this such... a beautiful night?,

             Em G7 C C7 
Whoa, we're underneath the thousand shining stars.

          F G7 C 
Isn't it nice to find yourself somewhere different?

    D7 F G7 C 
Whoa, why don't you let yourself just be wherever you are?.


          
Look at this place,

              B7 
Look at your faces.

      Em G7 C C7 
I've never seen you look like this before.

          F G7 C 
Isn't it nice to find yourself somewhere different?,

    D7 F G7 C 
Whoa, why don't you let yourself just be wherever you are?.



Look at this place,

               B7 
Look at your faces.

           Em G7 C C7 
They're shining like a thousand shining stars.

          F G7 C 
Isn't it nice to find yourself somewhere different?,

    D7 F G7 C 
Whoa, why don't you let yourself just be wherever you are?.


               F G7 C 
Why don't you let yourself just be somewhere different?.

    D7 F G7 C 
Whoa, why don't you let yourself just be whoever you are?.


Lo siento, ya hay varias tabs de esta canción y yo me gaste el oido en vano sin saber que 
existian,
solo la dejo aqui porque no se como borrarla asi que diganme como se borra el que venga a aprobarla

Love Bug chords – Jonas Brothers V5

 B A E 
Called her for the first time yesterday
 B A E 
Finally found the missing part of me
 B A E 
Felt so close but you were far away
 B A E 
Left me without anything to say

Chorus:
 E G#m 
Now I'm speechless, over the edge, I'm just breathless
                             A E                       
I never thought that I'd catch this love bug again
 E G#m 
Hopeless, head over heels in the moment
                             A E 
I never thought that I'd get hit by this love bug again

 B A E  
I can't get your smile out of my mind
[I can't get you out of my mind]
 B A E 
I think about your eyes all the time
 B A E  
You're beautiful but you don't even try
(You don't even, don't even try)
 B A E 
Modesty is just so hard to find

Chorus:
 E G#m 
Now I'm speechless, over the edge, I'm just breathless
                             A E                       
I never thought that I'd catch this love bug again
 E G#m 
Hopeless, head over heels in the moment
                             A E 
I never thought that I'd get hit by this love bug again



 B A E 
Kissed her for the first time yesterday
 B A E 
Everything I wished that it would be
 B A E 
Suddenly you forgot how to speak.
 B A E 
Hopeless, breathless baby can't you see?

(SOLO)

Chorus:
 E G#m 
Now I'm speechless, over the edge, I'm just breathless
                             A E                       
I never thought that I'd catch this love bug again
 E G# 
Hopeless, head over heels in the moment
                             A E 
I never thought that I'd get hit by this love bug again

 E G#m 
Hopeless, head over heels in the moment
                             A E 
I never thought that I'd get hit by this love bug again

11 Januari chords by Gigi V5

 [Intro]  C F C F C F Dm G  (2x)

     C/E F 
Sebelas januari bertemu
      C/E F 
Menjalani kisah cinta ini
     C/E F 
Naluri berkata engkaulah 
 Dm G 
Milikku

     C/E F 
Bahagia selalu dimiliki
      C/E F 
Bertahun menjalani bersamamu
      C/E F 
Kunyatakan bahwa engkaulah 
 Dm G 
Jiwaku

 Am F 
Akulah penjagamu
 Am F 
Akulah pelindungmu
 Am D/F# 
Akulah pendampingmu
    G 
Di setiap langkah-langkahmu

       C/E F 
Pernahku menyakiti hatimu
        C/E F 
Pernah kau melupakan janji ini
     C/E F 
Semua karena kita ini 
 Dm G 
manusia

 Am F 
Akulah penjagamu
 Am F 
Akulah pelindungmu
 Am D/F# 
Akulah pendampingmu
    G 
Di setiap langkah-langkahmu

[Chorus]
 C G 
Kau bawa diriku
 Dm Am G 
Kedalam hidupmu
 C G 
Kau basuh diriku
 F G 
Dengan rasa sayang

 C G 
Senyummu juga sedihmu 
 Dm Am G 
adalah Hidupku
 C G 
Kau sentuh cintaku 
 F 
dengan lembut
 G                  
Dengan sejuta warna

[Interlude]  Am F C/E Am F C/E Dm G  

[Chorus]
 C G 
Kau bawa diriku
 Dm Am G 
Kedalam hidupmu
 C G 
Kau basuh diriku
 F G 
Dengan rasa sayang

 C G 
Senyummu juga sedihmu 
 Dm Am G 
adalah Hidupku
 C G 
Kau sentuh cintaku 
 F 
dengan lembut
 G                  
Dengan sejuta warna

     C/E F 
Sebelas januari bertemu
      C/E F 
Menjalani kisah cinta ini
     C/E F 
Naluri berkata engkaulah 
 Dm G 
Milikku

Sweet Little Sixteen chords – Chuck Berry V5

 Sweet Little Sixteen - Chuck Berry.
http://www.songlyrics.com/chuck-berry/sweet-little-sixteen-lyrics/

I have corrected some of the lyrics per www.songlyrics
And re-arranged the verses per the youtube video.

V1              
 C G C 
They're really rockin in Boston, in Pittsburgh, P. A.
                      G C 
Deep in the heart of Texas and 'round the Frisco Bay.
              F C 
All over St. Louis, way down in New Orleans,
                    G C 
All the Cats wanna dance with, Sweet Little Sixteen.

V2
              G C 
Sweet Little Sixteen, she's just got to have,
              G C 
about half a million, framed autographs.
                          F C 
Her wallet's filled with pictures, she gets 'em one by one,
               G C 
She gets so excited, watch her look at her run.

Chorus
             F C 
Oh,  Mommy, Mommy, please may I go,
             G C 
It's such a sight to see, somebody steal the show.
            F C 
Oh, Daddy, Daddy, I beg of you,
            G C 
Whisper to Mommy, it's all right with you.

V3
 C G C 
Cause they'll be rockin on Bandstand, in Philadelphia P.A.,
                      G C 
Deep in the heart of Texas and 'round the Frisco Bay.
              F C 
All over St. Louis, way down in New Orleans,
                    G C 
all the Cats wanna dance with, Sweet Little Sixteen.


Instrumental Chords of verse

Repeat V3

V4
              G C 
Sweet Little Sixteen, she's got the grown up blues,
                 G C 
Tight dress and lipstick, she’s sporting high heeled shoes.
                  F C 
Oh, but tomorrow morning, she’ll have to change her trend,
               G C 
And be sweet sixteen, and back in class again.

Repeat V3

Wires chords – The Neighbourhood V5

 Wires
The Neighbourhood
Standard Tuning (They tune down, but I changed it so you don't have to.)
No Capo

*In the (live) acoustic version, they do not play the Cm in the verses, they just keep strumming A# 
so take It off If you would like*


[1st Verse:]

                  Gm 
We talked about making it
            F   
I'm sorry that you never made it
          A# Cm 
And it pains me to hear you have to say it
                          Gm 
You knew the game and played it
                           F 
It kills me to know that you have been defeated
    A# Cm 
I see the wires pulling while you're breathing
                      Gm F 
You knew you had a reason it killed you like diseases
                 A# Cm  
I could hear it in your voice while you're speaking
                      Gm F 
He can't be treated, Mr.-Know-It-All had his reign and his fall
     A# Cm 
At least that is what his brain is telling all


[Chorus:]
                               Gm F 
If he said, help me kill the president
                   A# Cm 
I'd say he needs medicine, 
                   Gm F 
Sick of screaming let us in
                    A# 
The wires got the best of him,
      Cm                                        
and all that he invested in,
   Gm F A# Cm 
goes Straight to hell, Straight to hell, (oh oh oh woah oh oh)
   Gm F A# Cm 
Straight to hell, straight to hell

[2nd Verse:]
                       Gm 
He told me, I should take it in
              F                      
Listen to every word he's speaking
       A#               
The wires getting older
        Cm  
I can hear the way they're creaking
             Gm 
As their holding him
          F                
I could see it in his jaw 
       A# Cm 
that all he ever wanted was a job
                    Gm 
He tells me to be raw
            F   
admits to every little flaw
        A# Cm 
that never let him sit at the top,
                   Gm 
Don't tell me to stop
                      F 
Thinks that I should be a little cautious,
 A# Cm 
I can tell the wires were pulled


[Chorus:]
                               Gm F 
If he said, help me kill the president
                   A# Cm 
I'd say he needs medicine, 
                   Gm F 
Sick of screaming let us in
                    A# 
The wires got the best of him,
      Cm                                        
and all that he invested in,
   Gm F A# Cm 
goes Straight to hell, Straight to hell, (oh oh oh woah oh oh)
   Gm F A# Cm 
Straight to hell, straight to hell


[Bridge:]
                                Gm 
I've been having trouble in believing
                  F 
I just started seeing,
                 A# 
light at the beginning of the tunnel
          Cm 
But he tells me that I'm dreaming,
          Gm          
When he talks I hear his ghosts
        F 
Every word they say to me,
         A# Cm 
I just pray the wires aren't coming


[Chorus:]
                               Gm F 
If he said, help me kill the president
                   A# Cm</

Pretender chords – Foo Fighters V5

 Am add9:       F#m7-5 (when u sing «keep you ...»):    Fmaj:

e|-7------|    e|------|                               e|--------|
B|-----10-|    B|---10-|                               B|-----10-|
G|---9----|    G|-9----|                               G|---9----|
D|-----10-|    D|---10-|                               D|-----10-|
A|--------|    A|-9----|                               A|-8------|
E|--------|    E|------|                               E|--------|

Am (chorus):   F#m7-5 (chorus):    F5 (chorus):        D (chorus):

e|-----|       e|-----|            e|-----|            e|-2---|
B|-1---|       B|-1---|            B|-----|            B|---3-|
G|---2-|       G|---2-|            G|-----|            G|-2---|
D|---2-|       D|---2-|            D|---3-|            D|-----|
A|-----|       A|-----|            A|---3-|            A|-----|
E|-----|       E|---2-|            E|-1---|            E|-----|



VERSE 1:
 Amadd9 
Keep you in the dark
               F#m7-5 Fmaj 
You know they all        pretend
 Amadd9 
Keep you in the dark
           F#m7-5 Fmaj 
And so it all        began
 Am 
Send in your skeletons
                              F#m7-5 F5 
Sing as their bones go marching in... again
 Am                    
The need you buried deep
                               F#m7-5 
The secrets that you keep are ever ready
 F5 
Are you ready?
 Am 
I'm finished making sense

Done pleading ignorance
         F#m7-5 F5 
That whole       defense
 Am 
Spinning infinity, boy

The wheel is spinning me
      F#m7-5 F5 
It's never-ending, never-ending
 D 
Same old story


CHORUS:
 Amadd9 
What if I say I'm not like the others?
                                    F#m7-5 
What if I say I'm not just another one of your plays?

You're the pretender
 Fmaj 
What if I say that I'll never surrender?

 Amadd9 
What if I say I'm not like the others?
                                    F#m7-5 
What if I say I'm not just another one of your plays?

You're the pretender
 Fmaj D 
What if I say that I'll never surrender? (2x)


VERSE 2:
In time or so i'm told 
I'm just another soul for sale... oh, well
The page is out of print
We are not permanent
We're temporary, temporary
Same old story


CHORUS (2x).


REPEAT:
e|-----------------------|
B|-----------------------|
G|---------2------------2|
D|22-44-55---2--2-44-55- |
A|-----------------------|
E|-----------------------|

AND SING:
I'm the voice inside your head
You refuse to hear
I'm the face that you have to face
Mirrored in your stare
I'm what's left, I'm what's right
I'm the enemy
I'm the hand that will take you down
Bring you to your knees
So who are you?
Yeah, who are you?
Yeah, who are you?
Yeah, who are you?


 Amadd9 
Keep you in the dark
               F#m7-5 Fmaj 
You know they all      pretend


CHORUS.


 Am 
So who are you?
Yeah, who are you?
Yeah, who are you?


https://www.youtube.com/watch?v=wV89Vg6jC4Y

The Last Goodbye chords – Billy Boyd V5

 Billy Boyd plays this song with Capo on 5th, see movie clip of the song

Standard tuning – Capo 5


 G  
I saw the light fade from the sky

On the wind I heard a sigh
            Em C Em C 
As the snowflakes covered my fallen brothers
         G C G 
I will say this last goodbye
 
 
 Em C 
Night is now falling
 G D 
So ends this day
       Em C 
The road is now calling
       G D 
And I must away
       Em C 
Over hill and under tree
                     Am C      
Through lands where never light is shined
            G 
By silver streams
           C D 
That run down to the sea
 
 
        Em C  
Under cloud, beneath the stars
       Am C 
Over snow and winters moor
            G C D Am 
I turn it last to paths that lead home
                       C Em 
And though where the road then takes me
            D Am C 
I cannot tell, we came all this way
                   Em 
But now comes the day
             D  
To bid you farewell
 
 

        G C G 
Many places I have been
        G C G 
Many sorrows I have seen
       Em C 
But I don't regret
          Em C 
Nor will I forget
          G C G 
All that took that road with me
 
 
 Em C 
Night is now falling
 G D 
So ends this day
       Em C 
The road is now calling
       G D 
And I must away
       Em C 
Over hill and under tree
                     Am C      
Through lands where never light is shined
            G 
By silver streams
           C D 
That run down to the sea
 
                Em C 
Towards these memories I will hold
           Am C 
With your blessing I will go
            G C D Am 
To turn at last to paths that lead home
 
                      C Em 
And though where the road then takes me
          D Am C 
I cannot tell, we came all this way
                   Em 
But now comes the day
            D  
To bid you farewell
 
 
 C Em C Em C Em C G 
I'll bid you all a very fond farewell