Tag: v6

Sugar intro Tabs – Robin Schulz V6

 -------------------------------------------------------------------------------
                             SUGAR - Robin Schulz
-------------------------------------------------------------------------------
: Lele
 raffaele.benedetti

CAPO 1
     
      Am                  Em              C      D       Am   
e----------------------------------------------------------------------------|
B----------------------------------------------------------------------------|
G-------5---5h7p5------------------------------------------------------------|
D---------7-------7-5-------5-5-5h7p5-------2------3-------7----7h9p7---5----|
A-------------------------7-----------7-7\3---3--5----5-------------------7--|
E-----5--------------------------------------------------5---5---------------|



************************************

| /   slide up
| \   slide down
| h   hammer-on
| p   pull-off
| ~   vibrato
| +   harmonic
| x   Mute note
| b   Bend
| pb  Pre-bend
| br  Bend release
| pbr Pre-bend release
| brb Bend release bend

************************************

He Knows My Name chords – Tommy Walker V6

 INTRO

 E F#m7 E/G# A E/B Bsus B A 


VERSE I


 E F#m7 E/G# A 
I have a Ma----ker

 E/B B7sus B A/B 
He formed my heart

 E F#m7 E/G# A 
Before even time began

 E/B B       
My life was in his 

 E F#m7 E/G# 
hands.


CHORUS


 A E B E 
He knows my name

 A E B E 
He knows my every thought

 A E B C#m 
He sees each tear that falls and 

 A B E A/E 
hears me when I call


VERSE II


 E F#m7 E/G# A 
I have a Fa----ther

 E/B B7sus B A/B 
He calls me His own

 E F#m7 E/G# A 
He'll never leave me

 E/B B E F#m7 E/G# 
No matter where I go


CHORUS 

 A E B E 
He knows my name

 A E B E 
He knows my every thought

 A E B C#m 
He sees each tear that falls and 

 A B E A/E 
hears me when I call



YouTube:
https://www.youtube.com/channel/UCNEFmIlsMqKfPeImMgatD1A

Ultimate Guitar Profile:
http://profile.ultimate-guitar.com/Maestro_727

Guitar Lessons website:
http://gsguitarfun.weebly.com

George Salas is a public middle school guitar teacher and Praise & Worship leader. He is currently pursuing 
a Master's in Music Education.

Take Five Tabs – Dave Brubeck V6

 Take 5:

Original played in 6th fret

5/4 timing

Intro/Background: 

      Am     Am     Em 
e-|-------------------------|
B-|-----1-----1------0------|
G-|-----2-----2------0------|
D-|-----2-----2------2------|
A-|--0-----0----------------|
E-|---------------0---------|


   Am        Em            Am               Em          Am            Em   Am     Em
e-|---------|---0----------------|--------------------|-------------------|-----------|
B-|-----1-3-|4-----4-3-1---------|--------------0-----|-------------------|-----------|
G-|---2-----|------------------0-|-2--------------2-0-|-2-----------0-----|-----------|
D-|-2-------|---------------2----|--------------------|---------------2-0-|-0h2-------|
A-|---------|--------------------|--------------------|-------------------|-----------|
E-|---------|--------------------|--------------------|-------------------|-----------|


   Am        Em            Am               Em          Am            Em   Am     Em
e-|---------|---0----------------|--------------------|-------------------|-----------|
B-|-----1-3-|4-----4-3-1---------|--------------------|-------------0-----|-----------|
G-|---2-----|------------------0-|-2------------0-----|---------------2-0-|--2--------|
D-|-2-------|---------------2----|----------------2-0-|-0h2---------------|-----------|
A-|---------|--------------------|--------------------|-------------------|-----------|
E-|---------|--------------------|--------------------|-------------------|-----------|

        Am       F                G        E7
e-|-5--8--5-----------------|----7--------------------|
B-|----------6-----5--6--7--|-8-----8--5-----------5--|
G-|-------------7-----------|-------------5--7--8-----|
D-|-------------------------|-------------------------|
A-|-------------------------|-------------------------|
E-|-------------------------|-------------------------|

   F            G              E7
e-|----5---------------------|-----------------------------|
B-|-6-----6--------------4---|-5---4--5--6--8--8--7--8--9--|
G-|----------7--4--5--7------|-----------------------------|
D-|--------------------------|-----------------------------|
A-|--------------------------|-----------------------------|
E-|--------------------------|-----------------------------|

   Am        F                G        E7
e-|-5--8--5-----------------|----7--------------------|
B-|----------6-----5--6--7--|-8-----8--5--------4--5--|
G-|-------------7-----------|-------------5--7--------|
D-|-------------------------|-------------------------|
A-|-------------------------|-------------------------|
E-|-------------------------|-------------------------|

    F        G                 E7
e-|----5--------------3---1--|-0--|
B-|-6-----6--------3---------|----|
G-|----------7--4------------|----|
D-|--------------------------|----|
A-|--------------------------|----|
E-|--------------------------|----|

Mess Is Mine Tabs – Vance Joy V6

 -------------------------------------------------------------------------------
                         MESS IS MINE - Vance Joy
-------------------------------------------------------------------------------
:CalvinMills
calvin@long-mills.ca

Tuning: Standard (EADGBe)

INTRO/VERSE
  Em      CXCX G                Em      CXCX G
e|------------|----------------|------------|----------------|
B|---8---\5X5X|---0-------0----|---0----1X1X|---0-------0----|
G|0----0--0X0X|0----0--0----0--|0----0--0X0X|0----0--0----0--| x2 (Intro)
D|------------|----------------|------------|----------------| x4 (Verse)
A|7-7---7\3X3X|----------------|--------3X3X|----------------|
E|------------|3-3---3-3-3---3-|0-0---0-----|3-3---3-3-3---3-|
  1 + 2 + 3 +  1 + 2 + 3 + 4 +  1 + 2 + 3 +  1 + 2 + 3 + 4 +

PRECHORUS
  G                C/G                                                                 G
e|----------------|----------------|----------------|----------------|----------------|-----------------|
B|---0-------0----|---1-------1----|---1-------1----|---1-------1----|---1-------1----|---0----0h1-3----|
G|0----0--0----0--|0----0--0----0--|0----0--0----0--|0----0--0----0--|0----0--0----0--|0----0--0-----0--|
D|----------------|----------------|----------------|----------------|----------------|-----------------|
A|----------------|----------------|----------------|----------------|----------------|-----------------|
E|3-3---3-3-3---3-|3-3---3-3-3---3-|3-3---3-3-3---3-|3-3---3-3-3---3-|3-3---3-3-3---3-|3-3---3-3-3----3-|
  1 + 2 + 3 + 4 +  1 + 2 + 3 + 4 +  1 + 2 + 3 + 4 +  1 + 2 + 3 + 4 +  1 + 2 + 3 + 4 +  1 + 2 + 3 +  4 +  
  G                C/G
e|----------------|----------------|----------------|----------------|----------------|
B|---0-------0----|---1-------1----|---1-------1----|---1-------1----|---1-------1----|
G|0----0--0----0--|0----0--0----0--|0----0--0----0--|0----0--0----0--|0----0--0----0--|
D|----------------|----------------|----------------|----------------|----------------|
A|----------------|----------------|----------------|----------------|----------------|
E|3-3---3-3-3---3-|3-3---3-3-3---3-|3-3---3-3-3---3-|3-3---3-3-3---3-|3-3---3-3-3---3-|
  1 + 2 + 3 + 4 +  1 + 2 + 3 + 4 +  1 + 2 + 3 + 4 +  1 + 2 + 3 + 4 +  1 + 2 + 3 + 4 +

CHORUS -strumming-
  Em      CXCX G                Em      CXCX G
e(0)-(0)--3X3X|3---3---3---3---|0---0---0-0-|3---3---3---3---|
B|8---8---5X5X|0---0---0---0---|0---0---1-1-|0---0---0---0---|
G|0---0---5X5X|0---0---0---0---|0---0---0-0-|0---0---0---0---| x2
D|9---9---5X5X|0---0---0---0---|2---2---2-2-|0---0---0---0---|
A|7---7---3X3X|2---2---2---2---|2---2---3-3-|2---2---2---2---|
E|0---0----X--|3---3---3---3---|0---0---3-3-|3---3---3---3---|
  1 + 2 + 3 +  1 + 2 + 3 + 4 +  1 + 2 + 3 +  1 + 2 + 3 + 4 +

BRIDGE
  Em               C                G                Dsus2/F#
e|----------------|----------------|----------------|---------0------|
B|---0-----0------|---1-----1------|---0-----0------|---3-------3----|
G|0-----0-----0---|0-----0-----0---|0-----0-----0---|2-----2------2--| x3
D|----------------|----------------|----------------|----------------|
A|----------------|3-3-3-3-3-3-3-3-|----------------|----------------|
E|0-0-0-0-0-0-0-0-|----------------|3-3-3-3-3-3-3-3-|2-2-2-2-2-2-2-2-|
  1 + 2 + 3 + 4 +  1 + 2 + 3 + 4 +  1 + 2 + 3 + 4 +  1 + 2 + 3 + 4 +

************************************

| /   slide up
| \   slide down
| h   hammer-on
| p   pull-off
| x   Mute note

************************************
VERSE 1
 Em             C     C  G
Talking like we used to do
Em             C C    G
It was always me and you
  Em             C  C   G
Shaping up and shipping out
  Em              C    C G
Check me in and check me out
    Em              C    C  G
Do you like walking in the rain?
           Em                    C   C   G
When you think of love, do you think of pain?
 Em               C   C   G
You can tell me what you see
Em                 C  C G
I will choose wh

Everybodys Changing chords – Keane V6

 G C 
You say you wander your own land
      Am 
But when I think about it
    D G Gmaj7 G Gmaj7 
I don't see how you can

         G 
You're aching, you're breaking
     C 
And I can see the pain in your eyes
       Am 
Says everybody's changing
     D G Gmaj7 G Gmaj7 
And I don't know why


 C D 
So little time
 G C 
Try to understand that I'm
 Am D 
Trying to make a move just to stay in the game
    Bm E 
I try to stay awake and remember my name
       Am D G Gmaj7 G Gmaj7 
But everybody's changing and I don't feel the same


 G 
You're gone from here soon you will disappear
 C 
Fading into beautiful light
 Am 
'cos everybody's changing
     D G Gmaj7 G Gmaj7 
And I don't feel right


 C D 
So little time
 G C 
Try to understand that I'm
 Am D 
Trying to make a move just to stay in the game
    Bm E 
I try to stay awake and remember my name
       Am D G Gmaj7 G Gmaj7 
But everybody's changing and I don't feel the same
(2x)

Slow Dancing In A Burning Room intro Tabs – John Mayer V6

 How about this? It's just the first part of the intro.

 If you know the song very well then you will be able to know the hammering,plucking,strumming
 and the power chords' parts


So, the low E string is always played with the thumb. Thanks! :))))))


e------------------------4------------|
b------------------------5------------|
g-------9--9-8-9--8--------6----------|
d------------9-11-9-9-11-9-4-6--------|
a--9-11----11-------9-11-9------------|
e--------9-9--------------------------|


e--------------------------4----------|
b--------------------------5----------|
g-------9--9-8-9--8--------4----------|
d------=-----9-11-9-9-11-9-6-4-6-4-6--|
a--9-11----11-------9-11-9---------7--|
e--------9-9--------------------------|
      

Centuries chords – Fall Out Boy V6

 Fall Out Boy - Centuries

Intro 

Doot do doo-doot, doot do doo-doot, doot do doo-doot, doot do doo-doot

Chorus
       Em G 
Some legends are told, some turn to dust or to gold
                 C Am D 
But you will remember me, remember me, for centuries
      Em G 
Just one mistake is all it will take
                   C Am D 
We'll go down in history, remember me for centuries

 Em G C Am D 
Hey-ya, hey, hey-ya, remember me for centuries


Verse 1
 Em G 
Mollified my teenage dreams, no, it's nothing wrong with me
      Am 
The kids are all wrong the stories are off
  C D 
Heavy Metal broke my heart

  Em G 
Come on, come on, and let me in, bruises on your thighs like fingerprints
  Am 
This is for tonight, the darkness that you felt
    C D 
I never meant for you to fix yourself

          Em G 
Doot do doo-doot, doot do doo-doot, doot do doo-doot, doot do doo-doot


Chorus
       Em G 
Some legends are told, some turn to dust or to gold
                 C Am D 
But you will remember me, remember me, for centuries
      Em G 
Just one mistake is all it will take
                   C Am D 
We'll go down in history, remember me for centuries

 Em G C Am D 
Hey-ya, hey, hey-ya, remember me for centuries






Verse 2
              Em 
And I can't stop till the whole world knows my name
       G 
Cause I was only bold inside my dreams
   Am 
Until you die for me, as long as there's a light
      C D Em G 
My shadow's over you cause I, I am the opposite of amnesia
      Am 
And you're a cherry blossom, you're about to bloom
      C D 
You look so pretty but you're gone so soon 

Doot do doo-doot, doot do doo-doot, doot do doo-doot, doot do doo-doot

Chorus
       Em G 
Some legends are told, some turn to dust or to gold
                 C Am D 
But you will remember me, remember me, for centuries
      Em G 
Just one mistake is all it will take
                   C Am D 
We'll go down in history, remember me for centuries

 Em G C Am D 
Hey-ya, hey, hey-ya, remember me for centuries


Bridge 
  Em G C Am D 
We've been here forever and here's the frozen fruit
 Em G C Am D 
I could scream forever we are the poisoned youth


Doot do doo-doot, doot do doo-doot, doot do doo-doot, doot do doo-doot


Chorus
       Em G 
Some legends are told, some turn to dust or to gold
                C            Am            N.C.
But you will remember me, remember me, for centuries
      Em G 
Just one mistake is all it will take
                   C Am D 
We'll go down in history, remember me for centuries

 Em G C Am             
Hey-ya, hey, go down in history, remember me for centuries
                       (hey-ya)

1985 chords – Bowling For Soup V6

 : Fabio BlenderBR

 - Give your rating and help others users to find the best versions of the songs -



Intro: 
 B Em G# F#     (2x)


Verse:
 B 
Debbie just hit the wall
 Em 
She never had it all
 G# 
One Prozac a day
 F# 
Husband's a CPA
 B 
Her dreams went out the door
 Em 
When she turned 24.
 G# 
Only been with one man
 F# 
What happened to her plan?


Pre Chorus:
 B 
She was gonna be an actress
 Em 
She was gonna be a star 
 G# 
She was gonna shake her ass
 F# 
On the hood of White Snake's car
 B 
Her yellow SUV 
 Em 
Is now the enemy
 G# 
Looks at her average life
 F# 
And nothing, has been, all right since


Chorus:
 B 
Bruce Springsteen, Madonna
 Em 
Way before Nirvana
 G#m 
There was U2 and Blondie
 A 
And music still on MTV  
 B 
Her two kids in high school
 Em 
They tell her that she's uncool
 G#m 
Cuz she's still preoccupied
 A  
With 19, 19, 1985 


Intro: 
 B Em G# F#     (2x)


 B 
She’s seen all the classics
 Em 
She knows every line
 G# 
"Breakfast Club", "Pretty In Pink"
 F# 
Even "St. Elmo's Fire"
 B 
She rocked out to Wham!
 Em 
Not a big Limp Bizkit fan
 G# 
Thought she'd get a hand
 F# 
On a member of Duran Duran


Pre Chorus:
 B 
Where's the mini-skirt
 Em 
Made of snakeskin?
 G# 
And who's the other guy 
 F# 
That's singing in Van Halen?
 B 
When did reality 
 Em 
Become T.V.?
 G# 
What ever happened to 
 F# 
Sitcoms, game shows (on the radio)


Chorus:
 B 
Bruce Springsteen, Madonna
 Em 
Way before Nirvana
 G#m 
There was U2 and Blondie
 A 
And music still on MTV  
 B 
Her two kids in high school
 Em 
They tell her that she's uncool
 G#m 
Cuz she's still preoccupied
 A  
With 19, 19, 1985 


Solo:
 B Em G# F#    


Bridge:
 B Em 
She hates time, make it stop
 G# F# 
When did Motley Crue become classic rock? 
 B Em 
And when did Ozzy become an actor?
 G# F# 
Please make this stop, stop, STOP... and bring back


Chorus:
 B 
Bruce Springsteen, Madonna
 Em 
Way before Nirvana
 G#m 
There was U2 and Blondie
 A 
And music still on MTV  
 B 
Her two kids in high school
 Em 
They tell her that she's uncool
 G#m 
Cuz she's still preoccupied
 A  
With 19, 19, 1985 

 B 
Bruce Springsteen, Madonna
 Em 
Way before Nirvana
 G#m 
There was U2 and Blondie
 A 
And music still on MTV  
 B 
Her two kids in high school
 Em 
They tell her that she's uncool
 G#m 
Cuz she's still preoccupied
 A  
With 19, 19, 1985 

Bent chords – Matchbox Twenty V6

 lots of versions on here, and I will agree that capo 2nd ones sound great, however this is without the capo

intro:

  in  F#m 

the ^ indicates to start bent up to sound like that fret
and then release the bend to finish on the actual fret

e----------------------------------------------|
B----------------------------------------------|
G----------------------------------------------|
D--9^7-------7-9---10^9---10^9--7--6-----------|
A----6---7-9-------------------------7---7h9---|
E--------------------------------------9-------|

e------------------------------------|
B------------------------------------|
G------------------------------------|
D-------7-9---10^9---10^9--7--6------|
A---7-9-------------------------9-9--|
E------------------------------------|


 F#m Bm 
      If I fall along the way
 E F#m 
      Pick me up and dust me off
                                 Bm 
      and if I get too tired to make it
 E F#m 
      be my breath so I can walk

                            Bm 
      If I need some other love
 E F#m 
      give me more than I can stand
                                      Bm 
      and when my smile gets old and faded
 E A 
      wait around I'll smile again

                 A/G# F#m 
      shouldn't be so complicated
                        Bm 
      just hold me and then
            E 
      just hold me again

 A E 
      can you help me I'm bent
                               D 
      I'm so scared that I'll never
                    E 
      get put back together
                          A 
      you're breaking me in
                               F#m 
      and this is how we will end
                       D 
      with you and me    bent

 D----------
 A----------
 E----5--4--

 F#m Bm 
      If I couldn't sleep could you sleep
 E F#m 
      could you paint me better off
                                 Bm 
      could you sympathize with my needs
 E A 
      I know you think I need a lot

                 A/G# F#m 
      I started out clean but I'm jaded
                       Bm 
      just phoning it in
 E 
      just breaking the skin

 A E 
      can you help me I'm bent
                               D 
      I'm so scared that I'll never
                    E 
      get put back together
                          A 
      you're breaking me in
                               F#m 
      and this is how we will end
                       D 
      with you and me    bent

 F#m F#m D F#m D 
      start bending me
                  F#m 
      It's never enough
              D 
      I feel all your pieces
 F#m D 
      start bending me
                       B7/D# D 
      Keep bending me until I'm completely broken in

F#m is played over this riff

e------------------------------------------|
B------------------------------------------|
G------------------------------------------|
D-------7-9---10^9---10^9--7--6------------|
A---7-9-------------------------7---7h9----|
E----------------------------------9-------|

e------------------------------------------|
B------------------------------------------|
G------------------------------------------|
D-------7-9---10^9---10^9--7--6--7--6--4---|
A---7-9------------------------------------|
E------------------------------------------|


 A

Whatever You Like chords – Ti V6

 Intro:  Dm Bb F C 

[Chorus:] 
                     Dm 
Stacks on deck 

Patrone on ice 
                  Bb 
And we can pop bottles all night 
                                                              F 
Baby you can have whatever you like (you like) 
                                                             C 
I said you can have whatever you like (you like) 

Yeah 
         Dm 
Late night sex, so wet and so tight 
                           Bb 
I'll gas up the jet for you tonight 
                                                              F 
Baby you can go where ever you like (you like) 
                                                              C 
I said you can go where ever you like (you like) 

Yeah 



[Verse 1:] 
 Dm 
Anytime you want to pick up the telephone 
            Bb 
You know it ain't nothin to drop a couple stacks on you 
       F 
Want it? you could get it my dear 
                                      C 
Five million dollar home, drop Bentley's I swear 
 Dm 
Yeah I want'cho body, I need yo body 
                 Bb 
Long as you got me you won't need nobody 
            F 
You want it I got it, go get it I buy it 
                 C 
Tellem other broke nigga (joker) be quiet 



[Chorus:] 



[Verse 2:] 
   Dm 
Shawty you da hottest, love the way you drop it 
    Bb 
Brain so good (good) coulda swore you went to college 
    F 
Hundred K deposits, vacations hit the tropics 
    C 
Cause errbody know it ain't trickin if ya got it 
   Dm 
Ya need to never ever gotta go to yo wallet 
   Bb 
Long as I got rubberband banks in my pocket 
   F 
Five six, rides with rims and a body kit 
         C 
Ya ain't gotta downgrade you can get what I get 
  Dm 
My chick can have what she want 
          Bb 
And go in every store for any bag she want 
           F 
And know she ain't never had a man like that 
        C 
To buy ya anything your heart desire like that 
             Dm 
Yeah I want'cho body, I need yo body 
   Bb 
Long as you got me you won't need nobody 
          F 
You want it I got it, go get it I buy it 
   C 
Tellem other broke niggas be quiet 

[Chorus:] 
                     Dm 
Stacks on deck 

Patrone on ice 
                  Bb 
And we can pop bottles all night 
                                                              F 
Baby you can have whatever you like (you like) 
                                                             C 
I said you can have whatever you like (you like) 

Yeah 
                      Dm 
Late night sex, so wet and so tight 
                           Bb 
I'll gas up the jet for you tonight 
                                                              F 
Baby you can go where ever you like (you like) 
                                                              C 
I said you can go where ever you like (you like) 

Yeah 

[Verse 3:]
 Dm  
Rize in big boy ice
  Bb 
Let me put this big boy in yo life
  F 
Thang, get so wet, ya hit so right
  C 
Let me put this big boy in yo life
                          Dm 
That's right, yeah I want'cho body, I need yo body
     Bb 
Long as you got me you won't need nobody
          F 
You want it I got it, go get it I buy it
    C 
Tellem other broke niggas (jokers) be quiet


[Chorus:]                     Dm
Stacks on deck 

Patrone on ice 
        

Vincent chords – Don Mclean V6

 Starry Starry
 D Em 
night paint your pallete blue and grey
               G A7 D 
Look out on a summers day with eyes tha know the darkness in my soul
                                       Em 
Shadows on hills sketch the tress and daffodils
                          G A7 D 
Catch the breeze and the winter chill In colors on the snowy linen land
chorus
 G D Em A7 D Bm 
        And now I understand      what you tried to say to me
                          Em7 A7 Bm 
How you suffered for you sanity     How you tried to set them free
                               E7 Em7 A7 D 
They would not listen the did not know how   perhaps they 'll listen now
               D Em 
Starry starry nite flamings flowr's that brightly blaze
               G A7 D 
Swirling coulds in violet haze reflect in VIncents eyes of china blue
                                       Em 
Colors changing hue,morning fields of amber graing
                          G A7 D 
Weatherd faces lined inpain Are soothed beneath the artists loving hand
chorus
           D Em7 A7 D 
{listen now}  For they could not love you  but still your love was true
 Bm Em7 Gm6 
    And when no hope was left in sight on that starry starry nite
     D C7 B7 Em7 
You took you life as lovers often do But I could of told you Vincent
      G A7 D 
This world was never meant for one as beautiful as you
               D Em 
Starry starry nite portraits hung in empty halls
               G A7 D 
frameless heads on nameless walls with eyes that watch the world and can't forget
                                       Em 
Like the strangers that you've met,the ragged men in ragged clothes
                          G A7 D 
The silver thorn the bloody rose Lie crushed and broken on the virgin snow
chorus
 G D Em A7 D Bm 
        And now I understand      what you tried to say to me
                          Em7 A7 Bm 
How you suffered for you sanity     How you tried to set them free
                                   E7 Em7 A7 
They would not listen, they're not listening still  perhaps they never will

Treasure Tabs – Bruno Mars V6

 -------------------------------------------------------------------------------
                             TREASURE - Bruno Mars
-------------------------------------------------------------------------------
: Andrew Perrea
 aperrea

Tuning: Standard

Intro
e --|--------------------------------|
B 11|11--11--11--11--11--------------|
G 8-|8---8---8---8---8---------------|
D 10|10--10--10--10--10--------------|
A --|--------------------------------|
E --|--------------------------------|

Verse 1
e|--------------------------------|--------------------------------|
B|8-----------X-X-8-----6-----4---|------------X-X-4-------8-------|
G|5-----------X-X-8-----7-----5---|------------X-X-5-------8-------|
D|6-----------X-X-6-----8-----6---|------------X-X-6-------6-------|
A|--------------------------------|--------------------------------|
E|--------------------------------|--------------------------------|

e|--------------------------------|--------------------------------|
B|6-----------X-X-6-----6-----8---|------------X-X-8-------6-------|
G|7-----------X-X-7-----7-----8---|------------X-X-8-------7-------|
D|8-----------X-X-8-----8-----10--|------------X-X-10------8-------|
A|--------------------------------|--------------------------------|
E|--------------------------------|--------------------------------|

e|--------------------------------|--------------------------------|
B|8-----------X-X-8-----6-----4---|------------X-X-4-------8-------|
G|5-----------X-X-8-----7-----5---|------------X-X-5-------8-------|
D|6-----------X-X-6-----8-----6---|------------X-X-6-------6-------|
A|--------------------------------|--------------------------------|
E|--------------------------------|--------------------------------|

e|--------------------------------|--------------------------------|
B|6-----------X-X-6-----6-----8---|------------X-X-8-------6-------|
G|7-----------X-X-7-----7-----8---|------------X-X-8-------7-------|
D|8-----------X-X-8-----8-----10--|------------X-X-10------8-------|
A|--------------------------------|--------------------------------|
E|--------------------------------|--------------------------------|

e|--------------------------------|--------------------------------|
B|8-----------X-X-8-----6-----4---|------------X-X-4-------8-------|
G|5-----------X-X-8-----7-----5---|------------X-X-5-------8-------|
D|6-----------X-X-6-----8-----6---|------------X-X-6-------6-------|
A|--------------------------------|--------------------------------|
E|--------------------------------|--------------------------------|

e|--------------------------------|--------------------------------|
B|6-----------X-X-6-----6-----8---|------------X-X-8-------6-------|
G|7-----------X-X-7-----7-----8---|------------X-X-8-------7-------|
D|8-----------X-X-8-----8-----10--|------------X-X-10------8-------|
A|--------------------------------|--------------------------------|
E|--------------------------------|--------------------------------|

Prechorus
e|--------------------------------|--------------------------------|
B|8-----------X-X-8-----6-----4---|------------X-X-4-------8-------|
G|5-----------X-X-8-----7-----5---|------------X-X-5-------8-------|
D|6-----------X-X-6-----8-----6---|------------X-X-6-------6-------|
A|--------------------------------|--------------------------------|
E|--------------------------------|--------------------------------|

e|--------------------------------|--------------------------------|
B|1111--1111--1111--1111----------|1111--1111--1111--1111----------|
G|X-X---X-X---X-X---X-X-----------|X-X---X-X---X-X---X-X-----------|
D|8-8---8-8---8-8---8-8-----------|8-8---8-8---8-8---8-8-----------|
A|--------------------------------|--------------------------------|
E|--------------------------------|--------------------------------|

Chorus
e|8-----------X-X-8-----6-----10--|------------X-X-10------8-------|
B|8-----------X-X-8-----6-----9---|------------X-X-9----

Secret Door chords – Arctic Monkeys V6

 Bb F#m Bb D#m Gm 
Fools on parade cavort and carry on
             Dm 
For waiting eyes
                Cm Dm 
Ones you would rather be beside than in front of
           Cm Dm 
But she's never been the kind to be hollowed by the stares

 Gm Dm Bb F    x4

     Gm Dm Bb F 
She swam out of tonight's phantasm
 Gm Dm Bb F Gm Dm 
Grabbed my hand and made it very clear
         Bb F Gm Dm Bb F 
There's absolutely nothing for us here
        Gm Dm 
It's a magnolia celebration
       Bb F 
To be attended on a Wednesday night
      Gm Dm 
It's better that than get a reputation
      Bb F 
As a miserable little tyke
     Gm Dm 
At least that's the conclusion
      Bb F Gm Dm Bb 
She came to in this overture

 Gm Bb Dm Dm Gm 
The secret door swings behind us
              Cm 
She's saying nothing
            Bb Dm 
She's just giggling along

     Gm Dm Bb F 
Her arms were folded most indignant
      Gm Dm Bb F Gm Dm 
Not looking like she was soon to leave
   Bb F Gm Dm Bb F 
I had to squint in order to believe
          Gm Dm 
And then like a butler pushing on a bookshelf
     Bb F 
And unveiling the unexpected
        
   Gm Dm Bb F             
I who was earlier reluctant was suddenly Gmbarrassed and corrected.
 Gm Dm Bb F Gm Dm Bb 
How could such a creature survive in such a habitat?

 Gm Bb Dm Dm Gm 
The secret door swings behind us
              Cm 
She's saying nothing
            Gm  
She's just giggling along

 Gm Bb Dm Dm Gm 
And even if they were to find us
            Cm Dm F 
I wouldn't notice, I'm completely occupied
               
            Bb F#m 
At all the fools on parade
            Gm Dm 
Cavort and carry on for waiting eyes
                Cm Dm 
Ones you would rather be beside than in front of
           Cm                 
But she's never been the kind
       F 
To be hollowed by the stares
 Bb F#m Gm 
Fools on parade frolic and fuck about
           Dm Cm Dm                       
To make a gaze turn to a scribble on a page by a picture
                Cm             
That holds her absence
                    F 
But you're daft to think she'd care
 Bb F#m Gm Dm 
Fools on parade
 Cm Dm Cm F 
Fools on parade
 Bb F#m        
Fools on parade
            Gm Dm Cm Dm Cm F 
Conduct a sing-along

Sos chords – Abba V6

 ABBA - SOS

as I play it on http://www.youtube.com/watch?v=qWJ5ayy8LUw

In A minor instead of D minor for easier play- and singability
For original key capo 5

Intro
E---------------|-------------|-------------|----------------|
B---------------|-------------|-------------|----1-----1-----|
G--9--9-7-7-5---|-5-5-4-4-2---|-2-2-0-0-----|----------------|
D-10-10-9-9-7---|-7-7-5-5-3---|-3-3-2-2-3-3-|-2----2-3---3-2-|
A---------------|-------------|---------5-5-|-0--------------|
E---------------|-------------|-------------|----------------|

E---------------|-------------|-------------|----------------|
B---------------|-------------|-------------|----1-----1-----|
G--9--9-7-7-5---|-5-5-4-4-2---|-2-2-0-0-----|----------------|
D-10-10-9-9-7---|-7-7-5-5-3---|-3-3-2-2-3-3-|-2----2-3---3-2-|
A--0----0---0-0-|-0---0---0-0-|-0---0---5-5-|-0--------------|
E---------------|-------------|-------------|----------------|

Fill 1   Fill 2    Fill3
E-------|---------|-----------------------------------------------------------------|
B-1-0---|-5-3-1-0-|-1-1-1-1-0-0-0-0-1-1-1-1-3-3-3-3-5-5-5-5-6-6-6-6-5-5-5-5-3-3-3-3-|
G-----2-|-5-4-2-1-|-2-2-2-2-1-1-1-1-2-2-2-2-4-4-4-4-5-5-5-5-7-7-7-7-5-5-5-5-4-4-4-4-|
D-------|---------|-----------------------------------------------------------------|
A-------|---------|-----------------------------------------------------------------|
E-------|---------|-----------------------------------------------------------------|

  G#0   
E-----|
B--3--|
G--4--|
D--3--|
A--x--|
E--4--|


 Am                     G#0                         Am  (Fill 1)              
Where are those happy days..they seem so hard to find.
 Am                  G#0                           Am  (Fill 2)
I try to reach for you but you have closed your mind.
 C G Dm Am 
Whatever happened to our love?..I wish I understood.
 Am                G#0                     Am  (Fill3)
it used to be so nice, it used to be so good.

chorus: 

 C G Dm F C Csus4 C 
So when you're near me, darling can't you hear me, S.O.S?
 C G Dm F C Csus4 C 
The love you gave me, nothing less can save me, S.O.S.
             F G# Bb C 
When you're gone, how can I even try to go on?
             F G# Bb C C/B 
When you're gone, though I try how can I carry on?



 Am                G#0                          Am  (Fill 1)
You seem so far away though you are standing near.
 Am                 G#0                         Am  (Fill 2)
You made me feel alive but something died, I fear.          
 C G Dm Am 
I really tried to make it up,..I wish I understood.
 Am                    G#0                     Am  (Fill3)
What happened to our love, it used to be so good.

chorus

solo

E-----------------|----------------|----------------|
B---1-1-1-1---0-0-|--3-3-3-3---0---|1---------------|
G-----------------|----------------|----------------|
D-----------------|----------------|----------------|
A-----------------|----------------|----------------|
E-0---0---0---0---|0---0---0---0---|0---0---0---0---|

E-----------------|----------------|--------------------------------|
B---5-5-5-5---3-3-|--6-6-6-6---0---|1-1-1-1-0-0-0-0-1-1-1-1-3-3-3-3-|
G-----------------|----------------|2-2-2-2-1-1-1-1-2-2-2-2-4-4-4-4-|
D-----------------|----------------|--------------------------------|
A-----------------|----------------|--------------------------------|
E-0---0---0---0---|0---0---0---0---|--------------------------------|

4 x

Beautiful In My Eyes chords – Jericho Rosales V6

 Standard Tuning (No Capo)

  Dm  -  Em  -  F C 
You’re my piece of mind
 Em           
In this crazy world
 Am F 
You’re every thing I’ve tried to find
                C G 
Your love is a pearl
           F 
You’re my Mona Lisa
           G 
You’re my rainbow skies
 Em7 Am 
And my only prayer is that you realize
 Dm Em F G C 
You'll always be beautiful in my eyes

 C 
The world will turn
 Em Am 
And the seasons will change 
                     F 
And all the lessons we will learn
                       C G          
Will be beautiful and strange
               F 
We’ll have our fell of tears
 G 
Our share of sight
 Em Am 
My only prayer is that you realize
 Dm Em F G C 
You’ll always be beautiful in my eyes

                 G C 
You will always be beautiful in my eyes
                      G 
And the passing years will show
                      F 
That you will always grow
      Am Dm G C 
Even more beautiful in my eyes 
            
 C 
there are lines upon my face
 Em Am 
From a lifetime of smiles
                     F 
and when the time comes to embrace
                   C G 
For one long last wine
        F G 
We can laugh about, how time really flies
 Em 
We won’t say goodbye
                 Am 
Cause true love never dies
 Dm Em F G C 
You’ll always be beautiful in my eyes…

                 G C 
You will always be beautiful in my eyes
                      G 
And the passing years will show
                      F 
That you will always grow
      Am Dm G C 
Even more beautiful in my eyes 

                     G 
The passing years will show
                       F 
That you will always grow
      Em Dm G C 
Ever more beautiful in my eyes

Role Model Tabs – Eminem V6

 This is the 100% CORRECT tab for the riff from Eminem's 'Role Model' from the album 'The Slim Shady LP'.

Tabbed by Keiran Saxty


Key: A#/Bb

Legend:

h - Hammer On
p - Pull Off


Tab used in the song:

e ------------1---2-1h2p---1-----------------|
B ----------2------------2-------------------|
G ------3--------------------3---------------| (loops continuously throughout the song)
D ----3--------------------------------------|
A -------------------------------------------|
E -------------------------------------------|



I have tabbed out several other ways of playing the riff (in the same key) across the fret-board:

e -------------------------------------------|
B -------------------------------------------|
G -------------------------------------------|
D ------------3---4-3h4p---3-----------------|
A ------1--4-------------4---1---------------|
E ----1--------------------------------------|

e -------------------------------------------|
B -------------------------------------------|
G -------------------------------------------|
D -------------------------------------------|
A ---------4--8---9-8h9p-4-8-----------------|
E ----1-6--------------------6---------------|

e -------------------------------------------|
B -------------------------------------------|
G ---------6--10---11-10h11p----10-----------|
D ------8--------------------11----8---------|
A ----8--------------------------------------|
E -------------------------------------------|


The hammer-on/pull-off section can be difficult to master; listen to the song closely to get a 
sense of the timing and then as you build up speed, attempt to play along with the track.

Communion Cups And Someones Coat Tabs – Iron And Wine V6

 Tabbed by: § NOSSTROSSOLIS §
Revised by: jakemdm
Email: aneyer@mica.edu

Tuning: E A D G B e

Capo on 4th


Intro: x 2

e|------------------------------------------------3------5------3---------------|
B|0-----3--------0h1p0-------------------3----------3------3------0-----3-------|
G|--0h2----0h2---------2p0-----0----0h2------0--------0------0------0h2----0h2--|
D|-------------------------0h2-----------------0--------------------------------|
A|3------3------------------------3--------3----------------------3-------3-----|
E|---------------3--------------------------------3-----------------------------|

e|---------------------------------3-----------|
B|0h1p0-------------------3-----------3-----3--|
G|------2p0-----0----0h2------0----------0-----|
D|----------0h2-----------------0--------------|
A|-----------------3--------3------------------|
E|3--------------------------------3-----------|


Verse 1:
e|------------------------------------------------3------5------3---------------|
B|0-----3--------0h1p0-------------------3----------3------3------0-----3-------|
G|--0h2----0h2---------2p0-----0----0h2------0--------0------0------0h2----0h2--|
D|-------------------------0h2-----------------0--------------------------------|
A|3------3------------------------3--------3----------------------3-------3-----|
E|---------------3--------------------------------3-----------------------------|
                Talk of yesterday...
e|---------------------------------3------------|
B|0h1p0-------------------3-----------3-----3---|
G|------2p0-----0----0h2------0----------0------|
D|----------0h2-----------------0---------------|
A|-----------------3--------3-------------------|
E|3--------------------------------3------------|

e|------------------------------------------------3------5------3---------------|
B|0-----3--------0h1p0-------------------3----------3------3------0-----3-------|
G|--0h2----0h2---------2p0-----0----0h2------0--------0------0------0h2----0h2--|
D|-------------------------0h2-----------------0--------------------------------|
A|3------3------------------------3--------3----------------------3-------3-----|
E|---------------3--------------------------------3-----------------------------|
                Say tomorrow...
e|---------------------------------3-----------|
B|0h1p0-------------------3-----------3-----3--|
G|------2p0-----0----0h2------0----------0-----|
D|----------0h2-----------------0--------------|
A|-----------------3--------3------------------|
E|3--------------------------------3-----------|

Chorus: x2
e|----------------------------------------------------------|
B|0----3-------0----3-------0----3-------0-------3----------|
G|-------0-----------0---------------0-------0-------0------|
D|---2-----2/4----4-----4/5----5-------5-------5-------5----|
A|0------------2------------3------3-------3-------3--------|
E|----------------------------------------------------------|
   But say...


e|------------------------------------------------3------5------3---------------|
B|0-----3--------0h1p0-------------------3----------3------3------0-----3-------|
G|--0h2----0h2---------2p0-----0----0h2------0--------0------0------0h2----0h2--|
D|-------------------------0h2-----------------0--------------------------------|
A|3------3------------------------3--------3----------------------3-------3-----|
E|---------------3--------------------------------3-----------------------------|

e|---------------------------------3-----------|
B|0h1p0-------------------3-----------3-----3--|
G|------2p0-----0----0h2------0----------0-----|
D|----------0h2-----------------0--------------|
A|-----------------3--------3------------------|
E|3--------------------------------3-----------|


Verse 2:
e|------------------------------------------------3------5------3---------------|
B|0-----3--------0h1p0-------------------3----------3------3------0-----3-------|
G|--0h2----0h2---------2p0-----0----0h2------0--------0------0--

Break In chords – Halestorm V6

 Artist: Halestorm  Song: Break In 
Standard 
robbarrie

 Bm G D Bm G D A Bm G D A 
Put your lighter in the air and lead me back home
When it's all said and done and follow the echoes
I hear you night after night calling out my name
And Im finding myself running to meet you
 Em Bm 
I didn't want to escape
                          A 
From the bricks that I laid down

Chorus:
 D A 
You are the only one
      Bm 
The only to tease me
       G 
That trusts me and believes me
 D A 
You are the only one
      Bm 
The only one that knows me
            G 
And in the dark you show me
 A Bm G 
It's perfectly reckless
    A Bm G A 
Damn you leave me defenseless
          Bm G D Bm G D A 
So break in        Break in

 Bm G D A 
You let me fall apart without letting go
Than you pick up the pieces and you make whole
 Em Bm 
I didn't want to escape
                       A 
From the bricks that I laid down

(Chorus chords)   D A Bm G  2x     A Bm G  2x   A 

Bridge

 G Bm 
And take everything I have
                A 
Until there is nothing left
                 D A G 
Until it's just your voice in my head
                          Bm 
And when the lights come on
                  F#m 
You see me as I am
                  A Asus4 A   
You're still inside me

(Chorus chords)   D A Bm G  2x    A Bm G  2x      A Bm G D Bm G D A Bm G D 
Put your lighter in the air and lead me back home 

All Of Me chords – John Legend V6

 All of me

:
:)
: HOPE U GUYZZZZ LIKE IT :)
[Verse 1] ( Am ,  F ,  C ,  G )
 Am F C  
What would I do without your smart mouth
             G Am 
Drawing me in, and kicking me out
           F C G Am 
Got my head spinning, no kidding, I cant pin you down
              F C 
Whats going on in that beautiful mind
                G Am 
Im on your magical mystery ride
         F C G Am 
And Im so dizzy, dont know what hit me, but Ill be alright

[Bridge] ( Am ,  Em ,  D )
 F C 
My heads under water
     G Am 
But Im breathing fine
  F C G 
Youre crazy and Im out of my mind

[Chorus] ( C ,  Am ,  F ,  G )
        C 
Cause all of me
        Am 
Loves all of you
             F 
Love your curves and all your edges
            G 
All your perfect imperfections
            C 
Give your all to me
             Am 
Ill give my all to you
          F 
Youre my end and my beginning
       G 
Even when I lose Im winning
                   Am F C G 
Cause I give you all, all of me
                  Am F C G 
And you give me all, all of you, oh

[Verse] ( Em ,  C ,  G ,  D )
 Am F C  
How many times do I have to tell you
                   G Am 
Even when youre crying you’re beautiful too
               F C G Am 
The world is beating you down, Im around through every move
             F C 
Youre my downfall, youre my muse
              G Am 
My worst distraction, my rhythm and blues
                F C G Am 
I cant stop singing, its ringing, in my head for you

[Bridge]

[Chorus]

[Bridge Change]
 F C 
Cards on the table
        G Am  
Were both showing hearts
 F C G 
Risking it all, though its hard

[Chorus]
                   Am F C G 
Cause I give you all, all of me
                   Am F C G 
And you give me all, all of you, oh

How Long Will I Love You chords – Ellie Goulding V6

 Don't use capo. 
I think it's in the correct key.
Enjoy ;)

 B F# 
HOW LONG WILL I LOVE YOU?
 E B C#m 
AS LONG AS STARS ARE ABOVE YOU
 B F# 
AND LONGER IF I CAN


 B F# 
HOW LONG WILL I NEED YOU
 E B C#m 
AS LONG AS THE SEASONS NEED TO
 B F# 
FOLLOW THEIR PLAN 

     E C#m 
    HOW LONG WILL I BE WITH YOU?
     F# B 
    AS LONG AS THE SEA IS BOUND TO
     C#m B F# 
    WASH UPON THE SAND

 B F# 
HOW LONG WILL I WANT YOU?
 E B C#m 
AS LONG AS YOU WANT ME TO
 B F# 
AND LONGER BY FAR   

 B F# 
HOW LONG WILL I HOLD YOU?
 E B C#m 
AS LONG AS YOUR FATHER TOLD YOU
 B F# 
AS LONG AS YOU ARE

     E C#m 
    HOW LONG WILL I GIVE TO YOU?
     F# B 
    AS LONG AS I LIVE TO YOU
     C#m B F# 
    AND HOW EVER LONG YOU SAY     

 B F# 
HOW LONG WILL I LOVE YOU?
 E B C#m 
AS LONG AS STARS ARE ABOVE YOU
 B F# 
AND LONGER IF I CAN

 B F# E B C#m B F# B F# 
HOW LONG WILL I LOVE YOU?
 E B C#m 
AS LONG AS STARS ARE ABOVE YOU
 B F# B 
END.