Tag: valentine

Valentine chords – Matt Epp

 C#m B A 
[Ooooh part]

 C#m 
I was sitting on the swings at recess
 B A                       
Sharing my cinnamon hearts with my princess
 C#m 
My friends were all laughing at me
         B A 
Singing K-I-S-S-I-N-G

 C#m B 
She takes my hand and leans in real close
                       A 
And she says "can you keep a secret?"
 C#m                     
She says that she likes me but it's a secret
 B A 
So she wants to know now can I keep it

 Ab F# E 
But she don't know that I was up 'til 3 am last night
Making this Valentine
 Ab F# E 
Trying to get the sparkles just right for you, that's when I ran out of glue
I hope you like it

 C#m B A 
[Ooooh part]

 C#m 
I was standing in the lunch line
                  B A 
Second chocolate milk on my tray, but one's for my girlfriend
 C#m 
But when she takes her seat she won't sit next to
    B A 
Oh why won't she sit next to me?

 C#m B 
Amy gives a message to Kim who gives a message to Rob
                     A 
And Rob's coming my way, coming my way now
 C#m 
Says that Amy liked me back at recess
     B A 
But now Amy's sitting with James

 Ab F# E 
But he don't know that I was up 'til 3 am last night
Making this Valentine
 Ab F# E 
Trying to get the sparkles just right for you, that's when I ran out of glue
I hope you like it

 C#m B A 
[Ooooh part]

 C#m 
I was sleeping in math class
    B A 
26 minutes 'til the end of the day (toc tic toc)
 C#m 
I daydream about my Amy so much
                B A 
I don't hear a word that the teachers say

 C#m B 
With math and these girls I would study 'til they made sense
           A 
Without a doubt, without a doubt
 C#m B 
I'd add Amy to me and multiply our love
                           A 
And then I'd factor James out

 Ab F# E 
You don't know that I was up 'til 3 am last night
Making this Valentine
 Ab F# E 
Trying to get the sparkles just right for you, that's when I ran out of glue
I hope you like it

 C#m B A 
[Ooooh part]

 C#m 
I was sitting in the back seat
                 B A 
Looking out the window on my bus ride home
 C#m 
Guess who, Kimmy comes up and sits next to me
              B A 
And says she doesn't want to see me alone

 C#m B 
So she takes my hand and leans in real close
                      A 
And she says "can you keep a secret?"
 C#m 
She says that she likes me and my Valentine
 B A 
Now she want's to know if she can keep it

 Ab F# E 
Because Kimmy, she knows that I was up 'til 3 am last night
Making this Valentine
 Ab F# E 
Trying to get the sparkles just right for you, that's when I ran out of glue
I hope you like it
 Ab F# E 
You don't know that I was up 'til 3 am last night
Making this Valentine
 Ab F# E 
Trying to get the sparkles just 

Raising Hell Tabs by Bullet For My Valentine V2

 : Connor Ford

  Bullet for My Valentine
Song:  Raising Hell
 ? (2013)


Tuning: D Tuning (D, G, C, F, A, D)
(Tune all string down one whole step)



Please rate, comment, correct, anything that will help :)


Hammer on:        h
Pull off:         p
Slide up:         /
Slide down:       \
Bend up:          BU(?)
Tapped note:      T
Vibrato:          ~~~
Pinch Harmonic:   PH
Natural Harmonic: NH
After Muting:     M
Pick slide:       X\\\ ('\' indicated duration)
Dive Bomb:        DB

‘/’ before DB indicates a raise into the dive bomb
‘\’ after DB indicates a lower of the Floyd rose bar

Guitar 1:        Matt Tuck
Guitar 2:        Michael Padge
Guitar 3:        Michael Padge (Additional harmonies)


________________________________________________________________________________



Intro
Guitar 1
|---------------------------------|---------------------------------|
|---------------------------------|---------------------------------|
|---------------------------------|---------------------------------|
|-2-------------------------------|-3-------------------------------|
|-2-------------------------------|-1-----------------------1-111-1-|
|-0-------------------------------|-------------------------1-111-1-|
|
|Guitar 2
|---------------------------------|---------------------------------|
|---------------------------------|---------------------------------|
|-4NH-DB\\\\\---------------------|---------------------------------|
|---------------------------------|---------------------------------|
|---------------------------------|-7NH-DB\\\\\---------------------|
|---------------------------------|---------------------------------|

Guitar 1
|---------------------------------|---------------------------------|
|---------------------------------|---------------------------------|
|---------------------------------|---------------------------------|
|-2-------------------------------|-3---------------5---------------|
|-2-------------------------------|-1---------------3---------------|
|-0-------------------------------|---------------------------------|
|
|Guitar 2
|---------------------------------|---------------------------------|
|---------------------------------|---------------------------------|
|-5NH-////DB------5\/5\/5\(5\\\---|-5NH-DB\\\\\---------------------|
|---------------------------------|---------------------------------|
|---------------------------------|---------------------------------|
|---------------------------------|---------------------------------|


________________________________________________________________________________


Pre-verse 1
Guitar 1
||-----------------------------------------------------------------||
|o-----------------------------------------------------------------o|
||-----------------------------------------------------------------||
||-----------------------------------------------------------------||
|o-----------------------------------------------------------------o|
||-6p0-0-0-0-0-0-0-6p0-0-0-0-0-0-0-6p0-0-0-0-0-0-0-6p0-5p0-3p0-5p0-||
|
|Guitar 2
||-----------------------------------------------------------------||
|o-----------------------------------------------------------------o|
||-----------------------------------------------------------------||
||-2---------------------------------------------------------------||
|o-2---------------------------------------------------------------o|
||-0---------------------------------------------------------------||

Both guitars
|-----------------------------------------------------------------|
|-----------------------------------------------------------------|
|-----------------------------------------------------------------|
|-----------------------------------------------------------------|
|-----------------------------------------------------------------|
|-6p0-0-0-0-0-0-0-6p0-0-0-0-0-0-0-6p0-0-

If I Am Tabs by My Bloody Valentine

 
-------------------------------------------------------------------------------
                             IF I AM - My Bloody Valentine
-------------------------------------------------------------------------------
: Justin       
 sdjustinr

Tuning: Standard
Notes: "If I Am" sounds like a regular song that was put into the 
musical equivalent of a paper shredder, which was then rearranged 
from memory and then reinterpreted as a watercolor painting. 


Instead of tabbing out rhythms and such, I'm just going to type out chords. They 
are sixteenth notes, 
each played 16 times in succession.
 
      C7        cm        asus2      e         C        F7        F6
e||----3----|----3----|----0----|----0----|----0----|---------|---------|
B||----0----|----4----|----0----|----0----|----1----|---------|---------|
G||----0----|----5----|----2----|----0----|----0----|----9----|----7----|
D||----2----|----5----|----2----|----2----|----2----|----7----|----7----|
A||----3----|----3----|----0----|----2----|----3----|----8----|----8----|
E||---------|---------|---------|----0----|---------|---------|---------|

     am        em        C7        F7        C7
e|----2----|----0----|----3----|----8----|----0----||
B|----3----|----0----|----5----|----10---|----0----||
G|----4----|----0----|----4----|----9----|----4----||
D|----4----|----2----|----5----|----10---|----5----||
A|----2----|----2----|----3----|----8----|----3----||
E|---------|----0----|---------|---------|---------||


    outro:

e|---------------------------||
B|.---10/12----5/7----10\8--.||
G|----10/12----5/7----10\8---||
D|----10/12----5/7----10\8---||
A|.---8/10-----3/5----8\6---.||
E|----8/10------------8\6----||

************************************

| /   slide up
| \   slide down
| h   hammer-on
| p   pull-off
| ~   vibrato
| +   harmonic
| x   Mute note
| b   Bend
| pb  Pre-bend
| br  Bend release
| pbr Pre-bend release
| brb Bend release bend

***************

Soft As Snow But Warm Inside chords – My Bloody Valentine V3

 MBV - Soft as Snow (But Warm Inside)

Tuning: EADG#Be

Chords:
     F# : x79000   F#/C# : x22000   B : x02000

Bass Intro:
    bass: E 11 9 7 9 7 6 7 6 4 6 4 2 4 2 0 222 000

Verse:
    guitar:  F# F#/C# F# F#/C# 
    lyrics: Soft as snow but warm inside Penetrate you cannot hide

    guitar:  F# F#/C# B F#/C# F# 
    lyrics: Feeling lost forever Really need you      Feeling dark and

    guitar:  F#/C# F# F#/C# F# F#/C# 
    lyrics: feeling true This is all I ever knew Soft as skin in leather

    guitar:        B F#/C# F# F#/C# F# F#/C# 
    lyrics: And I whisper 'you' Harder you come down on me Sink away you look

    guitar:          F# B F#/C# F# 
    lyrics: happily Secrets keep forever They're undressing me    Come

    guitar:              F#/C# F# F#/C# 
    lyrics: inside it's warm in here Better now to have no fear

    guitar:  F# F#/C# B F#/C# 
    lyrics: Carried on a wave (Where it can lead) you

End:
    guitar:   F#/C# ...   F#  ///  F#/C#  ///

Bass Intro - Verse - Bass Intro - Verse - End

I Need No Trust chords – My Bloody Valentine V2

 MBV - I Need No trust

Tuning: conventional



Chords:

     A : x02200   B : x24400   C# : x46600   D : x57700   F# : 244300   E : 022100





Instrumental Section:

    guitar:  A B F#  /  D  /  B  /   A B F#  /  D  /  B  /





Verse1:

    guitar:  B 

    lyrics: Greed seed It comes through me Fall fall I'm coming down



    guitar:                                   B C# B F# 

    lyrics: (Go inside) and close your eyes  It's just a fool's crown





Verse2:

    guitar:  B 

    lyrics: Sleep deep now  I'll come in anyhow



    guitar:  B C# B F# B C# B F# 

    lyrics: Love love I need your love  Lust lust I need no trust



    guitar:  B B C# B 

    lyrics: Greed seed  It comes through me  Love love I need your



    guitar:  F# B C# B F# B C# B F# 

    lyrics: love Lust lust I need no trust  It's just a fool's crown





End:

    guitar:  B  ///  F#  ///  E F#  ///  E F#  ///  E F# 



Instrumental Section - Verse1 - Instrumental Section - Verse2 -

Instrumental Section - End

Angel chords – My Bloody Valentine

 Tuning: standard

i have no idea what the lyrics to this song are so if anyone does and wants to
update this to make it easier to read along with---please do


     F# Bsus2 Bsus2/A   F#add4   C#sus2 Bmaj7
e|--2-------2-------2-------2-------4-------2--|
B|--2-------2-------2-------2-------4-------4--|
G|--3-------4-------4-------3-------6-------3--|
D|--4-------4-------4-------4-------6-------4--|
A|--4-------2-------0-------2-------4-------2--|
E|--2-------x-------x-------2-------x-------x--|

Intro:

 F#


Verse:

 Bsus2 Bsus2/A  


Chorus:

 F#         F#add4
An-       gel

 Bsus2 C#sus2 F# Bmaj7  
An-       gel

 Bsus2 C#sus2 Bsus2 C#sus2


Outro:

 F#

Raising Hell Tabs by Bullet For My Valentine

 ----------------------------------------------------------------------------
                            Raising Hell
                        Bullet For My Valentine
----------------------------------------------------------------------------

I’ll be honest, I was a little scared that BFMV might have lost their mojo when 
Temper Temper came out. But “Raising Hell” puts my mind at ease (ok, not my best 
play-on-words). Enjoy!

Username: dkm817 (same on X box live)
Youtube Cover: https://www.youtube.com/watch?v=WeNqP04zfL0
Email: guitardrums@rockfan.com

Guitar 1 Rhythmic (D G C F A D)
Guitar 2 Lead     (D G C F A D)
Guitar 3 Lead     (D G C F A D)

NOTE: This was exported off of guitar pro.


Guitar 1

     W                   W                   W                 
D||-------------------|-------------------|-------------------|
A||-------------------|-------------------|-------------------|
F||-------------------|-------------------|--3----------------|
C||--2----------------|--L----------------|--2----------------|
G||--2----------------|--L----------------|--1----------------|
D||--0----------------|--L----------------|-------------------|


           PM PM PM PM PM                                          
  H        E  S  S  E  E     W                   W                 
--------------------------|-------------------|-------------------|
--------------------------|-------------------|-------------------|
--L-----------------------|-------------------|-------------------|
--L--------2--2--2--2--3--|--2----------------|--L----------------|
--L--------2--2--2--2--3--|--2----------------|--L----------------|
-----------0--0--0--2--3--|--0----------------|--L----------------|


  W                   W                 
-------------------|-------------------|
-------------------|-------------------|
--3----------------|--3----------------|
--2----------------|--2----------------|
--1----------------|--3----------------|
-------------------|-------------------|


      PM PM PM PM PM PM     PM PM PM PM PM PM  
  S S S  S  S  S  S  S  S S S  S  S  S  S  S   
----------------------------------------------|
----------------------------------------------|
----------------------------------------------|
----------------------------------------------|
----------------------------------------------|
--6-0-0--0--0--0--0--0--6-0-0--0--0--0--0--0--|


      PM PM PM PM PM PM                  
  S S S  S  S  S  S  S  S S S S S S S S  
----------------------------------------|
----------------------------------------|
----------------------------------------|
----------------------------------------|
----------------------------------------|
--6-0-0--0--0--0--0--0--6-0-5-0-3-0-5-0-|


      PM PM PM PM PM PM     PM PM PM PM PM PM  
  S S S  S  S  S  S  S  S S S  S  S  S  S  S   
----------------------------------------------|
----------------------------------------------|
----------------------------------------------|
----------------------------------------------|
----------------------------------------------|
--6-0-0--0--0--0--0--0--6-0-0--0--0--0--0--0--|


      PM PM PM PM PM PM                  
  S S S  S  S  S  S  S  S S S S S S S S  
----------------------------------------|
----------------------------------------|
----------------------------------------|
----------------------------------------|
----------------------------------------|
--6-0-0--0--0--0--0--0--6-0-5-0-3-0-5-0-|


      PM PM PM PM PM PM     PM PM PM PM PM PM  
  S S S  S  S  S  S  S  S S S  S  S  S  S  S   
----------------------------------------------|
----------------------------------------------|
----------------------------------------------|
----------------------------------------------|
----------------------------------------------|
--6-0-0--0--0--0--0--0--6-0-0--0--0--0--0--0--|


      PM PM PM PM PM PM                  
  S S S  S  S  S