Tag: veil

She Makes Dirty Words Sound Pretty Chords version 2 by Pierce the Veil

[Chords]
  Emaj7 E  Am Am6  B  A
e|--4---4--5---5---0--0--|
B|--4---5--5---7---7--5--|
G|--4---4--5---5---8--6--|
D|--6---6--7---7---9--7--|
A|--7---7--0---0---9--7--|
E|--0---0--0---0---0--0--|

[Intro]
Emaj7 Am Am6 Am
Emaj7 E Emaj7 Am Am6

[Chorus]
                  Emaj7
If you call me at all
                       E    Emaj7
Don't tell me that I'm ordinary
Am               Am6             Am
Cause I won't be passing you, please don't leave
Emaj7                E         Emaj7    Am            Am6   Am
And if you tell me you're listening to everything you read

[Verse 1]
Emaj7         Am             Emaj7
Turn off this light, call my name
Emaj7       Am   Am6  Emaj7
Don't talk, just ride
Emaj7                        Am
Who wouldn't let you be all about,
Am6      Emaj7
About me
E                   Am           Am6
I'm only trying to work this out

[Chorus]
                     Emaj7
So if you call me at all
                       E    Emaj7
Don't tell me that I'm ordinary
Am               Am6             Am
Cause I won't be passing you, please don't leave
Emaj7                E         Emaj7    Am            Am6
And if you tell me you're listening to everything you read
Am
If you call me at all

[Verse 2]
Emaj7          E         Am
Oh, I hear you breathing on the line
        Am6       Emaj7
Oh baby girl, I'm not your type
               E       Am
I'll leave you hurting every night
                          Emaj7
So I won't be coming back
E                         Am
Who wouldn't let me be all alone
Am6                       Emaj7
Who wouldn't let me be all alone
E                           Am  Am6                B
Who wouldn't let you scream ohh to a soft pillow

[Bridge]
            A
I'm such an animal
         B                                  A   Am6
And baby honestly these teeth won't let you go

[Chorus]
Emaj7                  E    Emaj7
Don't tell me that I'm ordinary
Am               Am6             Am
Cause I won't be passing you, please don't leave
Emaj7                E         Emaj7    Am            Am6
And if you tell me you're listening to everything you read
       Am         Emaj7
If you call me at all
                       E    Emaj7
Don't tell me that I'm ordinary
Am               Am6             Am
Cause I won't be passing you, please don't leave
Emaj7                E         Emaj7    Am            Am6   Am
And if you tell me you're listening to everything you read

[Outro]
                  Am  Am6
If you call me at all
       Am         Emaj7 E
If you call me at all
       Emaj7      Am  Am6
If you call me at all
       Am         Emaj7 E
If you call me at all
       Emaj7      Am
If you call me at all

Goodbye Agony Tabs – Black Veil Brides

 guitar1:(2x)
|----------------------------------------------------------------------------------------------------------|
|--------2---3-----------------2---------------------------2-----3-----------------------------------------|
|------4-------------------4-------4-----------------4-------------------------------3--------4-----/6-----|
|----------------------------------------------------------------------------------------------------------|
|----2-----------------------------------------------------------------------------------------------------|
|---------------------5--------------------2---------------------------------4-----------------------------|

guitar2:
|----------------------------------------------------------------------------------------------------------|
|------12----------------------------------------------------------------11----------12----------14--------|
|----------------11------12------11------12-------\9------------12-----------------------------------------|
|----------------------------------------------------------------------------------------------------------|
|----------------------------------------------------------------------------------------------------------|
|----------------------------------------------------------------------------------------------------------|

Intro/Chorus lead part 1:
|---------------------------------------------------------------------14-----------------------------------|
|---12---------12---14---15b----------12---14----15--15b--15b---14--------14----12------11---12------------|
|----------11-----------------------11---------------------------------------------------------------------|
|----------------------------------------------------------------------------------------------------------|
|----------------------------------------------------------------------------------------------------------|
|----------------------------------------------------------------------------------------------------------|

|---------------------------------------------------------------------14-----------------------------------|
|---12---------12---14---15b----------12---14----15--15b---15b---14--------14----12----11---12b------------|
|--------11-----------------------11-----------------------------------------------------------------------|
|----------------------------------------------------------------------------------------------------------|
|----------------------------------------------------------------------------------------------------------|
|----------------------------------------------------------------------------------------------------------|

Chorus Lead part2:
|----------------------------------------------------------------------------------------------------------|
|------12--------------------------------------------------------------11----------12------------14--------|
|-------------11------12------11-----12----11-----12------9-----12-----------------------------------------|
|----------------------------------------------------------------------------------------------------------|
|----------------------------------------------------------------------------------------------------------|
|----------------------------------------------------------------------------------------------------------|
solo:

|---14b---14b---12-10---14p10---------------------10------------------14p10--------------------------------|
|--------------------------------12--10--12-------------14--12--14------------12---------------------------|
|----------------------------------------------------------------------------------------------------------|
|----------------------------------------------------------------------------------------11----12b---------|
|----------------------------------------------------------------------------------------------------------|
|--------------------------------------------------------------------------------------------------

Overture Tabs – Black Veil Brides

 So this is my first tab and I'm not sure if this is right or not but I'm just a beginner so I don't have much 
experience.
Anyways...... I hope you enjoy it :)




e|-1-0------1-0------1-0---------------------------------------|
B|-----3--------3--------3---------------0------------0--------|
G|-------2--------2--------2-----------2----2-------2---2------|
D|----------------------------3-2-0--0---------3--3-------3----|
A|-------------------------------------------------------------|
E|-------------------------------------------------------------|


e|---------------------5-7-5-----5-7-5----------5-3------------|
B|---------------------------6~--------6-3--3-6-----6-6--------|
G|-------2----------2------------------------------------------|
D|-3-0-3---5-3--3-5--------------------------------------------|
A|-------------------------------------------------------------|
E|-------------------------------------------------------------|


e|-3~-5-3-5-7-8---7-5-7-5---10--10-8-5—5~-3-5--3---3-5-3-5-7-8-|
B|------------------------3----------------------6-------------|
G|-------------------------------------------------------------|
D|-------------------------------------------------------------|
A|-------------------------------------------------------------|
E|-------------------------------------------------------------|


e|-7-5-7-5---10—10~-8-5—5~-3-5--3-1-3-5---5--5-7-5-5--5-7-5-5--|
B|---------3----------------------------3----------------------|
G|-------------------------------------------------------------|
D|-------------------------------------------------------------|
A|-------------------------------------------------------------|
E|-------------------------------------------------------------|


e|-5-7-5-5--5-7-5-5--5-7-3-5--3---3-5---5--5-7-5-5--5-7-5-5----|
B|------------------------------6-----3------------------------|
G|-------------------------------------------------------------|
D|-------------------------------------------------------------|
A|-------------------------------------------------------------|
E|-------------------------------------------------------------|

e|-5-7-3-5--3---3-5-5-5--5---3-5------3-5-7-5--3---3~----0---0-|
B|------------6------------6------3-6------------6-----3---6---|
G|-------------------------------------------------------------|
D|-------------------------------------------------------------|
A|-------------------------------------------------------------|
E|-------------------------------------------------------------|


e|-0---------------------------8-8-8-8-7----8-8-8-8-7---3------|
B|---3-1--------0------------------------6------------6--------|
G|------------2---2--------------------------------------------|
D|--------3-5-------5—-3~-5-0----------------------------------|
A|-------------------------------------------------------------| 
E|-------------------------------------------------------------|




e|-5-7-5-3---3--3-3~-5--5-5-5---3--5---8-8—-8~-5-7-------------|
B|---------6------------------6------6-------------------------|
G|-------------------------------------------------------------|
D|-------------------------------------------------------------|
A|-------------------------------------------------------------|
E|-------------------------------------------------------------|

e|-7-5-3---0-6--------------0----------------0-----------------|
B|-------3----------------3---6------------3---6---------------|
G|-------------------------------------------------------------|
D|----------------0-2-3-2----------0-2-3-2---------------------|
A|-------------0----------------0----------------0-------------|
E|-------------------------------------------------------------|

e|-----------0--------9-10~-10---------------------------------|
B|---------3---6-3--6------------------------------------------|
G|-------2-----------------------------------------------------|
D|-0-2-3-------------------------------------------------------|
A|--------------------------------------

King For A Day intro Tabs – Pierce The Veil V2

 -------------------------------------------------------------------------------
                             King for a Day - Pierce the Veil
-------------------------------------------------------------------------------
:


Tuning: Drop B
Okay so there are two parts to this intro...one of them is this and keep in mind the 
intro is kinda slow,
Also...Do not use a pick for this...use your thumb and index finger

C#|---------------------------------------------------------------------------|
G#|6666666666666666-5555555555555555------------------------------------------|
 E|---------------------------------------------------------------------------|
 B|---------------------------------------------------------------------------|
F#|5555555555555555-4444444444444444------------------------------------------|
 B|---------------------------------------------------------------------------|

The other part (lead part) goes like this...once again keep in mind that it is slow

C#|---------------------------------------------------------------------------|
G#|--------8-10-11-10-9-8---10-9-8---11---------------------------------------|
 E|-7-9-10----------------6--------6----10------------------------------------|
 B|---------------------------------------------------------------------------|
F#|---------------------------------------------------------------------------|
 B|---------------------------------------------------------------------------|


************************************

| /   slide up
| \   slide down
| h   hammer-on
| p   pull-off
| ~   vibrato
| +   harmonic
| x   Mute note
| b   Bend
| pb  Pre-bend
| br  Bend release
| pbr Pre-bend release
| brb Bend release bend

************************************

Yeah Boy And Doll Face Acoustic chords – Pierce The Veil V2

 Capo on 4
This is a SIMPLE VERSION not exactly right...meant for absolute beginners

 Am 
Were you honest when you said
 Em 
I could never leave your bed
 G Am Em G 
Wake me up and let me know your alive
 Am 
And will you fall in love again
 Em 
Is the scent slowly spreading
 G Am Em G 
I've been answering machines all night
 Am 
And now the doctors dancing in
 Em 
While the ambulances sang
 G Am Am * (let ring)
Another boy without a sharper knife
 Am 
The moment that's where I 
 Em 
Kill the conversation, wrap this up 
 G Am 
With a knife that loves to feel 
 Am Am *
How do you know how deep to go before it's real?

(Take me home)
 Am 
Can I even complicate your breathing?
 Em 
I guess I'm just your average boy 
 G                     
This is me with a knife in the back 
 Am 
And a grip on the grass
 Em  
It's cold and I don't want to be here
 G Am 
I guess I'm never comfortable or situational

 Am *              Em *
Are we losing or beginning
 G *              Am *
To try a new life without you?

 Am 
The moment that's where I 
 Em 
Kill the conversation, wrap this up 
 G Am Em G 
With a lie that I'm enjoying every minute with myself 
 Am 
And she could make hell feel just like home 
 Em 
So I'm never leaving her alone
 G *
But if your lightning lips aren't mine 
 Am *                                Em *
Then I don't know the awkward stranger to my right 
(But she's crying)
 G *                 Am *
I only need one hand to drive 
 Em 
When you're with me 
 G 
You are my getaway 
Oh, no!
 Am 
And don't you ever feel alone?
 Em 
And don't you wish you were home?
 G 
Cut the lust tonight; all right, all right
 Am 
Tell me why my little Mona Lisa told a lie, lie, lie, lie
 Em 
Do you want me? Do you want to let me know that you're okay?
 G 
A diamond gold ring customized to cut your circulation 
 Am 
But I couldn't let you go; no, I'd never let you go my dear
 Em  
So keep talking 'cause I love to hear your voice
(Love to hear your voice, love to hear your...)
 Am 
Voice again

King For A Day chords – Pierce The Veil V5

 Capo 2 OR No Capo

 F ,  C ,  G ,  D  (x2)

 F C F C 
Dare me to jump off of this Jersey bridge
 C C                   
I bet you never had a Friday night like this
 G D 
Keep it up, keep it up, let's raise our hands
                                  
I take a look up at the sky and I see
 F 
Red for the cancer, red for the wealthy
 C G 
Red for the drink that's mixed with suicide
           D 
Everything red
 Am F 
Please, won't you push me for the last time
                           C 
Let's scream until there's nothing left
           G Am 
So sick of playing, I don't want this anymore
                                F 
The thought of you's no fucking fun
                            C 
You want a martyr, I'll be one
         G Am 
Because enough's enough, we're done
 Am F  
You told me think about it, well I did
                                   C 
Now I don't wanna feel a thing anymore
                                             E 
I'm tired of begging for the things that I want
                                         Am 
I'm over sleeping like a dog on the floor
 Am F 
The thing I think I love
 C G 
Will surely bring me pain
                  D                       
Intoxication, paranoia, and a lot of fame
 F                              
Three cheers for throwing up
 C                      
Pubescent drama queen
 G D Am   
You make me sick, I make it worse by drinking late
 Am ,  F ,  C ,  G Am F 
Please won't you push me for the last time
                      C 
Scream until there's nothing left
            G Am 
So sick of playing, I don't want to anymore
 Am F 
The thought of you's no fucking fun
                           C 
You want a martyr I'll be one
         G Am 
Because enough's enough, we're done
 Am F  
You told me think about it, well I did
                                   G 
Now I don't wanna feel a thing anymore
                                            E 
I'm tired of begging for the things that I want
                                     Am 
I'm over sleeping like a dog on the floor
 Am C 
Imagine living like a king someday
                                       G 
A single night without a ghost in the walls
                                       Em 
And if the bass shakes the earth underground
                              Am 
We'll start a new revolution now
 Am F 
Hail Mary, forgive me
 C G 
Blood for blood, hearts beating
 Am C G 
Come at me, now this is war!
 Am F          
You told me think about it, well I did
                                 G  
Now I don't wanna feel a thing anymore
                                            Em 
I'm tired of begging for the things that I want
                                     Am 
I'm over sleeping like a dog on the floor
 Am C    
Imagine living like a king someday
                                    G    
A single night without a ghost i

The Boy Who Could Fly solo Tabs by Pierce The Veil V3

 -------------------------------------------------------------------------------
                             The Boy Who Could Fly (Solo) - Pierce the Veil
-------------------------------------------------------------------------------
: Keeilay
 kyle8594

Tuning: Standard (EADGBE)

e|---------------------------------------------------------------------------|
B|-15b17~-15b17r15-13---13----------------13h15-13-----------------15--------|
G|-------------------16---16-12h14---12-14--------16-14-12-14-14b16--16r14---|
D|---------------------------------------------------------------------------|
A|---------------------------------------------------------------------------|
E|---------------------------------------------------------------------------|

e|---------------------------------------------------------------------------|
B|--------------------------1212-12-15-12----12------------------------------|
G|-------12-14-----12121414---------------15----15-14-12---------------------|
D|--14-13------1414----------------------------------------------------------|
A|---------------------------------------------------------------------------|
E|---------------------------------------------------------------------------|

************************************

| /   slide up
| \   slide down
| h   hammer-on
| p   pull-off
| ~   vibrato
| +   harmonic
| x   Mute note
| b   Bend
| pb  Pre-bend
| br  Bend release
| pbr Pre-bend release
| brb Bend release bend

************************************

Fast Times At Clairemont High Tabs by Pierce The Veil V2

 -----------------------------------------------------------------------------
              Fast Times At Clairemont High - Pierce The Veil
-----------------------------------------------------------------------------

: Gunther Fox
 Gunther.Fox

Tuning: EBGDAE

FUNKY INTRO
E:-----------------------|
B:-----------------------|
G:------------2-1--------|
D:--4-4-----4-----4-2-4--|  (x2)
A:-----------------------|
E:------2-2--------------|

E:-----------------------|
B:-----------------------|
G:------------2-1--------|
D:----------------4-2-4--|  (x2)
A:--5-5-----5------------|
E:------2-2--------------|

PRE-VERSE
E:---------------------------------------------|
B:---------------------------------------------|
G:--11---11-9-9-11-11-14-14-13-13-11-11-10-10--|
D:---x----x-x-x--x--x--x--x--x--x--x--x--x--x--|  (x2)
A:---9----9-7-7--9--9-12-12-11-11--9--9--8--8--|
E:---------------------------------------------|

E:-------------------------------------------|
B:-------------------------------------------|
G:--11---11-9-9-11-11-14-14-13-13-11-11-9-9--|
D:---x----x-x-x--x--x--x--x--x--x--x--x-x-x--|
A:---9----9-7-7--9--9-12-12-11-11--9--9-7-7--|
E:-------------------------------------------|

E:---------------------------------------------|
B:---------------------------------------------|
G:--11-11---11-11-11---11-10-10---10-10-10---11|
D:---x--x----x--x--x----x--x--x----x--x--x----x|
A:---9--9----9--9--9----9--8--8----8--8--8----9|
E:---------------------------------------------|

VERSE
E:-----------------------|
B:--/10-10-9-9-7-7-6-7~--|
G:-----------------------|
D:-----------------------|  (x3)
A:-----------------------|
E:-----------------------|

E:---------------------------9\--|
B:--/10-10-9-9-9h10p9-12+p9-----|
G:-------------------------------|
D:-------------------------------|
A:-------------------------------|
E:-------------------------------|

E:-----------------------|
B:--/10-10-9-9-7-7-6-7~--|
G:-----------------------|
D:-----------------------|  (x4)
A:-----------------------|
E:-----------------------|

PRE-CHORUS
E:------------------------------7--|
B:--6---6---6---6---7---7---9------|
G:----6---6---6---6---6---6---6----|
D:---------------------------------|
A:---------------------------------|
E:---------------------------------|

CHORUS
(Slide the 9 on the B string down to the 7 when switching chords)
E:-----|         E:-----|        
B:--9--|         B:--7--|        
G:--6--|         G:--6--|        
D:--6--|  (x16)  D:--4--|  (x16)
A:-----|         A:-----|
E:-----|         E:-----|

E:-----|         E:-----|        
B:--9--|         B:--7--|        
G:--6--|         G:--6--|        
D:--6--|  (x16)  D:--4--|  (x16)
A:-----|         A:-----|
E:-----|         E:-----|


REPEAT THAT FUNKY INTRO


PRE-CHORUS
E:--------------|
B:--------------|
G:--------------|
D:--------------|
A:--------------|
E:--7---7-5-7\--|

E:---------------------|
B:---------------------|
G:--7-6-7-6-7-6-7-6-7\-|
D:---------------------|
A:---------------------|
E:---------------------|


REPEAT CHORUS
(Let the last chord ring)


POST-CHORUS
E:------|
B:------|
G:--5---|
D:----4-|  (x12)
A:------|
E:------|

BRIDGE
E:-------------------------------|
B:-------------------------------|
G:--/4-2-------2-----------------|
D:-------4p2h4---4p2h4p2---------|  (x11)
A:-----------------------4p2p0---|
E:-----------------------------2-|

E:-------------------------|
B:------------------7---9--|
G:--5---5---5---5---6---6--|
D:----4---4---4---4-4---6--|
A:-------------------------|
E:-------------------------|



REPEAT CHORUS
(Same chords but listen for the differences in strumming)



OUTRO
E:------------------------|
B:--7-7-9-10-9-7-6-9-9-9--|
G:------------------------|
D:------------------------|
A:------------------------|
E:------------------------|

Hold On Till May Acoustic chords – Pierce The Veil V2

 Verse:

 Asus2 Ab/B 
  She sits up high surrounded by the sun
                                         Asus2 
One million branches and she loves everyone
                                  Ab/B 
“Mom and dad, did you search for me?
        
I’ve been up here so long I’m going crazy!”

Chorus:

 A 
  And as the sun went down we ended up on the ground
             Ab/B          
I heard the train shake the windows

You screamed over the sound
           A 
And as we own this night

I put your body to the test with mine
              Ab/B 
This love was out of control

3-2-1 where did it go?

 A Ab/B 


Verse:

 Asus2 
  Now don’t be crazy

Yes now, of course you can stay here
                               Ab/B 
You know we’re going on ten years.

“Big deal, I guess you’re official.”
                                             Asus2 
I only said it ‘cause I know what it’s like to feel

Burned out, and down
                      Ab/B 
We’ve all been there sometimes

But tonight I’ll make you feel beautiful once again



Chorus:

 A 
  And as the sun went down we ended up on the ground
             Ab/B          
I heard the train shake the windows

You screamed over the sound
           A 
And as we own this night

I put your body to the test with mine
              Ab/B 
This love was out of control

3-2-1 where did it go?


 E  -> 0-2 ->  Ab/B  -> 7 ->  A  -> 4 -> 


Bridge:

 E Ab/B 
  If I were you, I’d put that away
                         A 
See, you’re just wasted

And thinking about the past again
                    E 
Darling you’ll be okay


And she said,
 E Ab/B 
 “If you were me, you’d do the same
         A        
‘Cause I can’t take anymore

I’ll draw the shades and close the door
  E 
Everything’s not alright and I would rather…”

 E Ab/B A E 

Chorus:

 Am A 
  And as the sun went down we ended up on the ground
             Ab/B          
I heard the train shake the windows

You screamed over the sound
           A 
And as we own this night

I put your body to the test with mine
                E 
This love was out of control

Tell me where did you go?

 Ab/B A E 

------0-|
------0-|
------2-|
--2-1-2-|
------0-|
------x-|

Rebel Love Song Acoustic chords – Black Veil Brides

 This song I tried to figure out myself for an acoustic version my band is doing. Hope
these work out for you, if you suggest any changes, let me know please! 

Capo 1st Fret

Rebel Love Song-BVB

(VERSE 1)

 Am F Am 
I cannot hide what's on my mind
           G 
I feel it burning deep inside.
 Am F Am 
     A passion crime to take what's mine
              Dm/C 
Let us start living for today.

(BRIDGE)

 Am 
Never gonna' change my mind

 F     We can leave it all behind

 C     Nothin's gonna' stop us
    G 
No not this time

(CHORUS)

     Am G 
So take your hand in mine
              C 
It's ours tonight
              F 
This is a rebel love song
   Am G 
Hearts will sacrifice
             C 
It's do or die
            F 
This is a rebel love song.

(lightly hold the strings around 12th fret and strum a few beats)

(VERSE 2)

 Am F Am 
My outlaw eyes have seen their lies
             G 
I choke on all they had to say
 Am F Am 
When worlds collide what's left inside
             Dm/C 
I hold on tight and hear you pray

(BRIDGE [exactly the same as the first time])

Never gonna' change my mind
We can leave it all behind
Nothin's gonna' stop us
No not this time

(CHORUS[the same])

So take your hand in mine
It's ours tonight
This is a rebel love song

Hearts will sacrifice
It's do or die
This is a rebel love song


 Am F 
Wild and running for one reason
 Am G 
They can't stop us from our freedom
(Wild and running for one reason
They can't stop us from our freedom)

(SAME EXCEPT STRUM PALM MUTED)
Never gonna' change my mind
We can leave it all behind
Nothin's gonna' stop us
     G  let ring out
No not this time

(the rest is exactly the same and repeats)

So take your hand in mine
It's ours tonight
This is a rebel love song

Hearts will sacrifice
It's do or die
This is a rebel love song

So take your hand in mine
It's ours tonight
This is a rebel love song

Hearts will sacrifice
It's do or die
This is a rebel love song


I hope this helped! :) Like i said, if there's anything I could/should change, just let
me know.

Bulletproof Love Acoustic chords – Pierce The Veil

 F#  => x4432x
 C#  => x4666x
 B   => x9987x
 Ab  => x(11)(11)(10)9x
 Bb  => x8876x


     F# C# B Ab Bb 

e ---x---             ---x---         ---x---         ---x---     ---x---
B ---2---             ---6---         ---7---         ---9---     ---6---
G ---3---             ---6---         ---8---         ---10--     ---7---
D ---4---             ---6---         ---9---         ---11--     ---8---
A ---4---             ---4---         ---9---         ---11--     ---8---
E ---x---             ---x---         ---x---         ---x---     ---x---

Disasterology chords – Pierce The Veil V2

 CHORDS USED:

They are all power chords, but you can use regular chords if you want

 G#m : |4|6|6|x|x|x|  Except in Verse 1 it's: |x|x|6|8|9|x|

 E : |x|7|9|9|x|x|    Except in Verse 1 it's: |x|x|2|4|5|x|

 D# : |x|6|8|8|x|x|

Alternatively, you can play Em, C, and B with a capo on the 4th fret

--------------------------------------------------------------------------

VERSE 1:

          G#m E 
I laid down, I drank the poison then I passed the fuck out.

                                         G#m 
Now let me tell you 'bout the good life,


I have a million different kinds of fun

            E 
When I'm asleep and in a dream that I'm your only one.


CHORUS:

 G#m E 
Can we create something beautiful and destroy it?

 G#m E G#m 
Nobody knows I dream about it, this is my imagination.


VERSE 2:

 G#m E 
If you come over tonight we can travel through time,

                                   D# 
We can sleep on the ceiling and creep under black lights.

 G#m E 
I have a million different girls that hide under my bed,

                                D# 
And when I let them out they treat me right.

 G#m E 
Oh what a waste of a perfectly good, clean wrist.

             D# 
You were screaming till the police came.


CHORUS:

 G#m E 
Can we create something beautiful and destroy it?

 G#m E G#m 
Nobody knows I dream about it, this is my imagination.

     E D# G#m 
If every living thing dies alone, what am I doing here?

     E D# G#m               
If every living thing dies alone, what am I doing here?


BREAK:
 E ,  D# ,  G#m 


CHORUS:

 G#m E 
Can we create something beautiful and destroy it?

 G#m E G#m 
Nobody knows I dream about it, this is my imagination.

     E D# G#m 
If every living thing dies alone, what am I doing here?

     E D# G#m               
If every living thing dies alone, what am I doing here?

 G#m 
What am I doing here? Oh, no.

Chemical Kids And Mechanical Brides chords – Pierce The Veil V3

 This may not completely match up when playing with the song, but when played alone 
I think this sounds pretty good.

Standard tuning
Capo 6

Intro:  Em Em Am7 
Like a rush shot through you
 Em Am7 Am 
Everyone is watching you
 Em 
Told you why I see no need for the sun
(I've found a reason to say)
 C Am 
A love you light is a love soon gone
 Em 
If this is it, don't bother 'cause this love is a lie
 C Am Em C Am D 
I'm a chemical kid, you're a mechanical bride

 Em 
(When every vein is red out of the blue)
                         C Am7 Am    
I held a diamond to the sun to count the moments on account of the way you
 Em D C 
Smile, smile for me
                               Am 
Oh, we're in slow motion when you
 Em D C 
Smile, smile for me

                          Am7 
But oh my God I've been looking
              Em C Am 
But I still hold your breath so you won't leave
 Em 
Pastel red and porn-star white
 C Am D C 
Ghost on the altar, we breathe don't leave

 Am7 C 
Say that the night sings alone
              Em C Am 
If there's a God then I'm letting him go
         C 
All for you
      Em 
You alone
           C Em 
Raise my hands, at the thought of you leaving me alone
 C Am7 Am 
Don't torture me, or beg me
         Em D 
Can you make me believe in tiring

 C Am7 Am 
As you fall fast asleep it reminds me
        Em Am7 Am 
Of the slow symphonies behind me
         C Am7 Am 
All the nightmares you'll see tomorrow
         Em Am7 Am C 
All the stars on your ceiling, they glow but not for you
 C Am7 D7 
Through the trees I'll blow

~~~

You can replace the last chord with an Am7 but I like to play it as D7.
Alright hope this isn't too bad.

Thank You – The Veil chords – Heather Clark

 Capo 3

 D A 
Thank You for the cross  -  thank You for your death
                   G A D 
Thank You for the chance to live again - thank You for the blood
                    A G A 
That always covers me - cause everyday I'm falling short of your glo--ry
                   D A 
Thank You for the crown - thank You for the nails
                     G A 
Thank You that your flesh was torn - and that You tore the veil
                    D A 
Thank You for your grace - displayed perfectly
               G A G A D 
When You hung undeserved dying on a tree

    D                                        
I give You my worship - I give You my love - I give You my worship
     G A D 
And all that I'm holding on - I give You my worship - I give You my love
                            G A D G A D 
I give You my worship and all that I'm hol--ding on

                         G A D 
And when the rain comes down - I'll be dancing with You
                   G A D 
And when the fire falls - I'll be dancing with You
                          G A D G A D 
And in the river of Your spirit - I'll be dancing with You

                        G A D 
Place my hands on Your hands - and I dance with You
                        G A D 
Place my feet on Your feet - and I dance with You
                      G A D G A D 
Lay my head on Your shoulder - and I dance with You

 D A D G A 
Jesus Christ - lover of mine - Jesus Christ - I can't wait to be with You
 D A D G A 
Jesus Christ - lover of mine - Jesus Christ - I can't wait to be with You
 D A D G A D 
Jesus Christ - lover of mine - Jesus Christ - I can't wait to be with You

 G A D G A D 
Place my hands on Your hands - and I dance with You
                  G A D 
Place my feet on Your feet - and I dance with You
                     G A D G A D 
Lay my head on Your shoulder - and I dance with You

 D A D G A 
Jesus Christ - lover of mine - Jesus Christ - I can't wait to be with You
 D A D G A 
Jesus Christ - lover of mine - Jesus Christ - I can't wait to be with You
 D A D G A D 
Jesus Christ - lover of mine - Jesus Christ - I can't wait to be with You

 G A D G A D 
Place my hands on Your hands - and I dance with You
                  G A D 
Place my feet on Your feet - and I dance with You
                     G A D     
Lay my head on Your shoulder - and I dance with You