Tag: vsion

Hopeful chords – Bars And Melody Vsion 3

 -------------------------------------------------------------------------------
                           HOPEFUL - Bars and Melody
-------------------------------------------------------------------------------

Capo 3/4
Standard Tuning

* = Strum Once

Riff/Intro:

e|-------------------------------------|
B|----1----0----1-------5----8----1----|
G|---0----0----2-2-2---5----9----2-2-2-|
D|--2----0----2---2---5----9----2---2--|
A|-3----2----0-------3----7----0-------|
E|-------------------------------------|

Capo 3

[Verse 1]
        C G 
Please help me God, I feel so alone
     Am 
I'm just a kid, I can't take it on my own
      C G 
I've cried so many tears, yeah, writing this song
 Am 
Trying to fit in. Where do I belong?
   C G 
I wake up every day, don't wanna leave my home
    Am 
My mamma's askin' me why I'm always alone
     Dm Em 
Too scared to say, too scared to holler
 F *
I'm walking to school with sweat around my collar
     C G 
I'm just a kid, I don't want no stress
    Am 
My nerves are bad, my life's a mess
     C G 
The names you call me, they hurt real bad
   Am 
I want to tell my Mom

She's havin' trouble with my Dad
 C G 
  I feel so trapped, there's nowhere to turn
 Am 
Come to school

Don't wanna fight I wanna learn
  Dm 
So please mister Bully
      Em 
Tell me what I've done
     F *
You know I have no Dad

I'm livin' with my Mom


[Chorus]
            C G 
'Cause I'm hopeful, yes, I am
 Am 
Hopeful for today
           C G 
Take this music and use it
        Am 
Let it take you away
        C G 
And be hopeful, hopeful
     Am 
And He'll make a way
   Dm Em F 
I know it ain't easy but that's okay
         C 
Just be hopeful


[Verse 2]
                        G 
Why do you trip at the colour of my skin
     Am 
And whether I'm fat or whether I'm thin
     C G 
You call me loser, you call me a fool
   Am 
I ain't got a choice, I gotta go to school
   C G 
I wish I had an angel to stand by my side
     Am 
I'm shaking with fear, I'm so scared inside
 Dm Em 
Doesn't really matter if I ain't got the looks
            F *
Why do you always hurt me and destroy my books?


[Chorus]
            C G 
'Cause I'm hopeful, yes, I am
 Am 
Hopeful for today
           C G 
Take this music and use it
        Am 
Let it take you away
        C G 
And be hopeful, hopeful
     Am 
And He'll make a way
   Dm Em F 
I know it ain't easy but that's okay
         C *
Just be hopeful


[Verse]
                         G *
I give you all my money every single day
          Am *
I didn't ask to be born but now I have to pay
   C *                      G *
I ain't got no food, you take all I have
 Am *
When I give it to you, you search through my bags
   C G 
I wrote this song for you to see
    Am 
We could've been friends, yeah you and me
 Dm Em 
Mister bully, take a moment please
       F *
Every single day you bring me to my knees


Capo 4

[Chorus]
            C G 
'Cause I'm hopeful, yes, I am
 Am 
Hopeful for today
           C G

Bittersweet Tragedy chords – Melanie Martinez Vsion 4

 Melanie Martinez - Bittersweet Tragedy
Dollhouse EP

I had a rather tough time with this song,
but I enjoyed it very much. This is as
accurate as I could get it.

Chords Used:
 C#m  ;  E  ;  A  ;  G#  ;  B 

::Intro::
 C#m E A G# C#m E A A G#    

[Verse 1]
 C#m E A G# 
Sweet, boy, straight out of the movie screen
 C#m E A  ...  A G# 
Candy hearts and chocolate dreams
 C#m E A G# 
I   met my prince upon a popcorn ball
 C#m E                 A...  A G# 
He held my heart and let it go
 C#m E A G# 
Ice cream, upon a summer's day
 C#m E A  ...  A G# 
Beginning sweetness never stays
 C#m E A G# 
Mel-ting through the cracks in my hands
 C#m E A C#m E    
I guess I held on for too lo-o-o-o-o   -  ong

::Chorus::
     A    B    G#    C#m E    
I'm done with your bittersweet, bittersweet tragedy-y-y
         A    B    G#    
It's no fun, when I'm sitting all alone
                 C#m E 
You're right in front of me-e-e
         A B G# C#m E 
And I'm done with your bittersweet, bittersweet tragedy-y-y
         A B G# 
It's no fun, when I'm sitting all alone
                 C#m 
You're right in front of me
                 C#m       ...  A G# 
You're right in front of me

::Verse 2::
 C#m E A G# 
You speak sour lemonade to me
 C#m E A  ...  A G# 
 The bitter taste won't let me be
 C#m E A G# 
One kiss was supposed to be so sweet
 C#m E A  ...  A G# 
But I found grapefruit in your teeth
 C#m E A G# 
Old gum is all you'll ever be to me
 C#m E A  ...  A G# 
I spit you out and brush my teeth
 C#m E A G 
Mel-ting through the cracks in my hands
 C#m E A C#m E 
I guess I held on for too lo-o-o-o-o - ong

::Chorus::
     A    B    G#    C#m E    
I'm done with your bittersweet, bittersweet tragedy-y-y
         A    B    G#    
It's no fun, when I'm sitting all alone
                 C#m E 
You're right in front of me-e-e
         A B G# C#m E 
And I'm done with your bittersweet, bittersweet tragedy-y-y
         A B G# 
It's no fun, when I'm sitting all alone
                 C#m 
You're right in front of me
                 C#m       ...  A G# 
You're right in front of me

::Bridge::
 C#m    
Enough of your bittersweet
 E    
Your sugar rots my teeth
 A    
Clogs up my arteries
      A G# C#m E    
Your

Head Over Boots chords – Jon Pardi Vsion 4

 Head over boots 


 C G D Em F D# Cm G 
I wanna sweep you off your feet tonight 
 D 
I wanna love you and hold you tight 
 Em 
Spin you around on some old dance floor 
    C Cm 
Act like we never met before for fun, 



 G 
Cause you re the one I want, you re the one I need 
 D 
Baby, if I was a king, ah, you would be my queen 
 Em 
You re the rock in my roll 
 C Cm 
You re good for my soul, it s true 
                            G 
I m head over boots for you


 G 
The way you sparkle like a diamond ring 
 D 
Maybe one day we can make it a thing 
 Em 
Test time and grow old together 
 C Cm 
Rock in our chairs and talk about the weather, yeah 
 G 
So, bring it on in for that angel kiss 
 C Cm 
Put that feel good on my lips, 
 G 
Cause you re the one I want, you re the one I need 
 D 
Baby, if I was a king, ah, you would be my queen 
 Em 
You re the rock in my roll 
  C Cm  
You re good for my soul, it s true
                            G 
I m head over boots for you


 G 
Yeah, I m here to pick you up 
      F C Cm 
And I hope I don t let you down, no, 
 G 
cause you re the one I want, you re the one I need 
 D 
Baby, if I was a king, ah, you would be my queen 
 Em 
You re the rock in my roll 
 C Cm 
You re good for my soul, it s true 
                           G 
I m head over boots for you


 G 
You re the one I want, you re the one I need 
 D 
Baby, if I was a king, ah, you would be my queen 
 Em 
You re the rock in my roll 
 C Cm 
You re good for my soul, it s true 
                            G 
I m head over boots for you


 G 
I wanna sweep you off your feet tonight 
 D 
I wanna love you and hold you tight 
 C Cm     
Spin you around on some old dance floor 
 
Outro:  G D Em C Cm G

Land Of Snow And Sorrow intro Tabs – Wintersun Vsion 1

 -------------------------------------------------------------------------------
                             Land of Snow and Sorrow - Wintersun
-------------------------------------------------------------------------------
: Kakku
Tuning: EADGBE (Normal)

All the way till first verse.

h   = Hammer on
p   = Pull off
/   = slide
(x) = To play or not to play..
~   = Awesome


e|---------------------------------------------------------------------------|
B|---------------------------------------------------------------------------|
G|---------------------------------------------------------------------------|
D|---------------------------------------------------------------------------|
A|-1--1-3-3-----1-1-3-4-4----1--4-6-6----1-1-6-8-8---------------------------|
E|---------------------------------------------------------------------------|

e|---------------------------------------------------------------------------|
B|---------------------------------------------------------------------------|
G|---------------------------------------------------------------------------|
D|---------------------------------------------------------------------------|
A|-1--1-3-3-----1-1-3-4-4----1--4-6-6----1-1-8-9-9---------------------------|
E|---------------------------------------------------------------------------|

e|---------------------------------------------------------------------------|
B|---------------------------------------------------------------------------|
G|---------------------------------------------------------------------------|
D|---------------------------------------------------------------------------|
A|-1--1-3-3-----1-1-3-4-4----1--4-6-6----1-1-6-8-8---------------------------|
E|---------------------------------------------------------------------------|

e|---------------------------------------------------------------------------|
B|---------------------------------------------------------------------------|
G|---------------------------------------------------------------------------|
D|---------------------------------------------------------------------------|
A|-1--1-3-3-----1-1-3-4-4----1--4-6-6----1-1-8-9-9---(1)---------------------|
E|---------------------------------------------------------------------------|


e|---------------------------------------------------------------------------|
B|---------------------------------------------------------------------------|
G|---------------------------------------------------------------------------|
D|-3h6-6----6p3-6----6-8-10----10s11-11-11----3h6-6----6-5-3----6-8-10-------|
A|---------------------------------------------------------------------------|
E|---------------------------------------------------------------------------|

e|---------------------------------------------------------------------------|
B|---------------------------------------------------------------------------|
G|-------------------------10-13-13---13-10-13---13-15-17---17-18-18b20------|
D|--11/13-13-13h16-16-15-----------------------------------------------------|
A|---------------------------------------------------------------------------|
E|---------------------------------------------------------------------------|

e|---------------------------------------------------------------------------|
B|----------------------------------------14-16-16~--------------------------|
G|-10-13-13---13-12h13p12-10---13-15-17--------------------------------------|
D|---------------------------------------------------------------------------|
A|---------------------------------------------------------------------------|
E|---------------------------------------------------------------------------|

\,,/ 

Repeat 3x:
_________________________________________________________________________________

e|---------------------------------------------------------------------------|
B|---------------------------------------------------------------------------|
G|-----------------

Zina Tabs – Babylone Vsion 2

 -------------------------------------------------------------------------------
                             ZINA - Babylone
-------------------------------------------------------------------------------
: Melissa El-Hani
 melissaelhani

Tuning: Standard


Verse and Chorus:

      G                 Cadd9                 Em7                    D

e|----------3---3-------------3---3-------------3---3-----------------2---2---------|
B|------3----------3------3----------3------3-----------3---------3----------3------|
G|----0---0---0---------0---0---0---------0---0---0-------------2---2---2-----------|
D|-----------------------------------------------------------0----------------------|
A|--2-----------------3-----------------2-------------------------------------------|
E|----------------------------------------------------------------------------------|



Solo : 

e|---------------------------------------------------------------------------------|
B|---------------------------------------------------------------------------------|
G|-7h9-7-------7------------7-9----------------------------------------------------|
D|-------9-7h9---7-5-7--7h9-----9/10\9-7-5-7-----5-5-------------------------------|
A|-------------------------------------------5h7-----------------------------------|
E|---------------------------------------------------------------------------------|

e|---------------------------------------------------------------------------------|
B|---------------------------------------------------------------------------------|
G|-7s9-7-------7--------------7--12-11---------------------------------------------|
D|-------9-7h9---7-5-7--5h7-9-----------12-7/9-9\7-5-5------------------------------|
A|---------------------------------------------------------------------------------|
E|---------------------------------------------------------------------------------|


Outro:

e|---------------------------------------------------------------------------------|
B|---------------------------------------------------------------------------------|
G|------7------7--------    ---------7-------7-------------------------------------|
D|--7h9---7h9-----7-5---(x3)----7h9-----7h9-----7-5--5h7-7-5h7 ----5h7--5-5--------|
A|----------------------    -----------------------------------5h7-----------------|
E|---------------------------------------------------------------------------------|

************************************

| /   slide up
| \   slide down
| h   hammer-on
| p   pull-off

************************************

Moon On The Water chords – Beck Vsion 1

 Moon On The Water
Beck
As interpreted by: Daniel P. Clark (6ftdan @ Gmail/Twitter)

(Same key as the male vocalist.  Female vocalist shifts key a half step down.)

Intro:


E|-----0-----------5-----------------7-------------|
B|-------0-----------5-----------4h5-----------2-4-|
G|---------3-----------8-------6-------------4-----|
D|---2-----------------------6-------------4-------|
A|---------------7---------4-------------2---------|
E|-0-----------5-----------------------------------|

             (extra for instrumental parts only)
E|-----0-----|----0--------0---------------|
B|-------0---|---0-0---------0-------------|
G|---------2-|--2---2----------2-----------|
D|---2-------|-2-----2---2-----------------|
A|-0---------|---------0-------------------|
E|-----------|-----------------------------|


 E A2    
Full moon sways
 C#m B A2  
Gently in the night of one fine day
 E A2  
On my way
 C#m B A2   
Looking for a moment with my dear

 E A2    
Full moon waves
 C#m B A2   
Slowly on the surface of the lake
 E A2    
You are there
 C#m B A2    
Smiling in my arms for all those years

        C#m   
What a fool!
   A2 E        
I don't know about tomorrow
 B F#m 
What it's like to be
 A2  
Ah~

       C#m  
I was sure
           A2 E  
'Couldn't let myself to go
 B F#m  
Even though I feel
 A2      
The end

 E A2      
Oh my fair...
 C#m B A2    
Floating like a bird that's in her wings
 E A2    
You are there
 C#m B A2    
Smiling in my arms for all those years

        C#m   
What a fool!
   A2 E        
I don't know about tomorrow
 B F#m 
What it's like to be
 A2  
Ah~

       C#m  
I was sure
           A2 E  
'Couldn't let myself to go
 B F#m  
Even though I feel
 A2      
The end

(Instrumental: Intro x2)

        C#m   
What a fool!
   A2 E        
I don't know about tomorrow
 B F#m 
What it's like to be
 A2  
Ah~

       C#m  
I was sure
           A2 E  
'Couldn't let myself to go
 B F#m  
Even though I feel
 A2      
The end

 E A2    
Full moon sways
 C#m B A2  
Gently in the night of one fine day
 E A2    
You are there
 C#m B A2    
Smiling in my arms for all those years

Simple Pursuit chords – Melodie Malone Vsion 2

 Simple Pursuit
Passion 2016
by Riley Anne


 C G Em D 
God take us back, the place we began
 C G Em D 
The simple pursuit of nothing but You
 C G Em D 
The innocence of a heart in Your hands
 C G Em D 
God take us back, God, take us back


                  C G 
To an unswerving faith in the power of Your name
            Em D 
A heart beating for Your kingdom to reign
                 C G 
A church that is known for Your presence again
 Em D 
God take us back


 C G 
Nothing and no one comes close to You
 Em D 
Nothing could ever come close
 C 
Nothing and no one
 G 
It's You and You only
 Em D 
Nothing could ever come close


 C G 
Keep our hearts real
 Em D 
Keep Your grace close
 C G 
You're bringing us back
 Em D 
You're bringing us home


                  C G 
To an unswerving faith in the power of Your name
            Em D 
A heart beating for Your kingdom to reign
                 C G 
A church that is known for Your presence again
 Em D 
God take us back


 C G 
Nothing and no one comes close to You
 Em D 
Nothing could ever come close
 C 
Nothing and no one
 G 
It's You and You only
 Em D 
Nothing could ever come close
(repeat)


(instrumental break)


                  C G 
To an unswerving faith in the power of Your name
            Em D 
A heart beating for Your kingdom to reign
                 C G 
A church that is known for Your presence again
 Em D 
God take us back


 C G 
Nothing and no one comes close to You
 Em D 
Nothing could ever come close
 C 
Nothing and no one
 G 
It's You and You only
 Em D 
Nothing could ever come close

Golden Ring chords – George Jones Vsion 2

 Golden Ring George Jones

 D 
In a pawn shop in Chicago on a sunny sumer day
    A7 D           
A couple gazes at the wedding rings there on display

She smiles and nods her head as he says Honey that's for you.
                              A7 D 
It's not much but it's the  best that I can do.

         D 
Golden Ring with one tiny little stone
           A7 D 
Waiting there for someone to take it home

By itself it's just a cold metalic thing
                       A7 D      
Only love can make a golden wedding ring.

       D 
In a little wedding chapel later on that after noon
     A7 D   
An old up right piano plays that old familiar tune

Tears roll down her cheeks and happy thoughts run through her head
                          A7 D 
As he whispers low with this ring I thee wed.

         D 
Golden Ring with one tiny little stone
          A7 D 
Shining ring now at last it's found a home

By itself it's just a cold metalic thing
                       A7 D      
Only love can make a golden wedding ring.

      D 
In a small two room apartment as they fight their final round
     A7 D  
He says You won't admit it but I know you're leavin' town.

She says One thing's for certain I don't love you anymore.
                              A7 D 
And throws down the ring as  she walks out the door.

         D 
Golden Ring with one tiny little stone
       A7 D  
Cast aside like the love that's dead and gone.

By itself it's just a cold metalic thing
                       A7 D      
Only love can make a golden wedding ring.
 D 
In a pawn shop in Chicago on a sunny sumer day
    A7 G D           
A couple gazes at the wedding rings there on display Golden Ring

Fall Tabs – Something Corporate Vsion 2

 Song: Fall
 Something Corporate
Tuning: eADGBE
 Brandon Bushnell


Intro/Verse:Riff1                                              
E|-----------------------------------------------------------|
B|-----------------------------------------------------------|
G|------------------------------------44-44-4444-------------|
D|22-22-2222--44-44-4444--66-66-6666--44-44-4444-Repeat 3x---|
A|22-22-2222--44-44-4444--66-66-6666--22-22-2222-------------|
e|00-00-0000--22-22-2222--44-44-4444-------------------------|


 [Lead Guitar Fill] 
E|-----------------------------------------|
B|--44444444------------1111111--44444444--|
G|------------88888888---------------------|
D|-----------------------------------------|
A|-----------------------------------------|
e|-----------------------------------------|

  [Pre-Chorus]
E|------------------------------------------|
B|--------------------------------44444444--|
G|--------------------------------44444444--|
D|--22222222--44444444--66666666--22222222--|
A|--22222222--44444444--66666666------------|
e|--00000000--22222222--44444444------------|

[Chorus]:(x2)
E|-----------------------------------------|
B|-----------------------------------------|
G|------4444-----------------4444----------|
D|-2222-4444-4444-66-44-2222-4444-44444444-|
A|-2222-2222-4444-66-44-2222-2222-44444444-|
e|-0000------2222-44-22-0000------22222222-|


E|-----------------------------------------------------------|
B|-----------------------------------------------------------|
G|------------------------------------44-44-4444-------------|
D|22-22-2222--44-44-4444--66-66-6666--44-44-4444-Repeat 4x---|
A|22-22-2222--44-44-4444--66-66-6666--22-22-2222-------------|
e|00-00-0000--22-22-2222--44-44-4444-------------------------|


 [Lead Guitar Fills]
E|-------------------------------------------|----------------------------------------------------|
B|-------------------------------------------|-----------------------------------------14p0-14p0--|
G|--3333-4444-3333-4444-3333-4444-6666-4444--|-------------h11p0--h11p0--h11p0--h11p0-------------|
D|-------------------------------------------|--11br-9v-------------------------------------------|
A|-------------------------------------------|----------------------------------------------------|
e|-------------------------------------------|----------------------------------------------------|


[Pre-Chorus]
E|------------------------------------------|
B|--------------------------------44444444--|
G|--------------------------------44444444--|
D|--22222222--44444444--66666666--22222222--|
A|--22222222--44444444--66666666------------|
e|--00000000--22222222--44444444------------|


[Chorus]:(x2)
E|-----------------------------------------|
B|-----------------------------------------|
G|------4444-----------------4444----------|
D|-2222-4444-4444-66-44-2222-4444-44444444-|
A|-2222-2222-4444-66-44-2222-2222-44444444-|
e|-0000------2222-44-22-0000------22222222-|


Interlude:(x4)
E|---------------------------|
B|---------------------------|
G|---------------------------|
D|--66666666666668-98989898--|
A|--66666666666668-98989898--|
e|--44444444444446-76767676--|
  pm.............

 [Lead Guitar Fills]
E|-------------------------------------------------------------------|
B|-------------------------------------------------------------------|
G|-------------------------------------------------------------------|
D|--11br--9-8-9-8-9-8---11br--9-8-9-8-9-8--11br--9-8-9-8-9-8--11br~--|
A|-------------------------------------------------------------------|
e|-------------------------------------------------------------------|


[Chorus]:(x2)
E|-----------------------------------------|
B|-----------------------------------------|
G|------4444-----------------4444----------|
D|-2222-4444-4444-66-44-2222-4444-44444444-|
A|-2222-2222-4444-66-44-2222-2222-44444444-|
e|-0000------2222-44-22-0000------22222222-|

 
[Lead Guitar] 
E|--------------------------------------------

Chains chords – Patty Loveless Vsion 2

 Patty Loveless - Chains


CAPO: 2nd Fret



INTRO:  C F Bb F C F  
Bought a ticket to Seattle, but I can't get to the plane
 C G  
Every time I leave you, I keep running out of chain
    C F  
My hunger for your loving never gives me any slack
          G  
But if I ever break away, I'm never coming back to these
 

CHORUS:
 C F  
Chains, chains, shackles and chains
    G  
No matter what it takes someday I'm gonna break these
 C F  
Chains, Chains, shackles and chains
       C  
These love taking, heart breaking
 Bb F C   
Cold hard, lonely making chains

 
                                    F  
You never try to hold me, 'til you see me walking out
   C G  
I guess you'd rather be with me than ever be without
     C F  
You call me back and kiss me and my heart begins to sink
        G  
When I know that all you're doing's taking up another link in these...


CHORUS:
 C F  
Chains, chains, shackles and chains
    G  
No matter what it takes someday I'm gonna break these
 C F  
Chains, Chains, shackles and chains
       C  
These love taking, heart breaking
 Bb F C   
Cold hard, lonely making chains


INTERLUDE:  C F Bb F C 


BRIDGE:
 F C  
Love was never meant to be a one way street
 G C    
I was never meant to be falling at your feet
     F C 
You got me where you want me and I don't know what to do
     G  
You don't belong to me, but I belong to you and these...
 

CHORUS:
 C F  
Chains, chains, shackles and chains
    G  
No matter what it takes someday I'm gonna break these
 C F  
Chains, Chains, shackles and chains
       C  
These love taking, heart breaking
 Bb F C   
Cold hard, lonely making chains


CHORUS:    (## fade to end ##)
                 F  
Chains, chains, shackles and chains
    G  
No matter what it takes someday I'm gonna break these
 C F  
Chains, Chains, shackles and chains
       C  
These love taking, heart breaking
 Bb F C   
Cold hard, lonely making chains

Dont chords – Bryson Tiller Vsion 2

 First Tab ever so "don't" be to harsh. 
I put my Capo on the 6th Fret. I fingerpick, but you can also strum.
Check out my cover on my instagram.
Your_Tellophone


"Don't" x Bryson Tiller



 Am 
Don't
                 Am 
Don't play with her don't be dishonest
 F G 
Still not understanding this logic
 Am Am 
Aye, I'm back and I'm better
                 F 
I want you bad as ever
                       G 
Don't let me just let up
 Am 
I want to give you better
                 Am 
Baby it's whatever
                 F 
Somebody gotta step up
Girl I'm that somebody
         G 
So I'm Next up
                         Am 
Be damned if I let him catch up
                         Am 
It's easy to see that you're fed up
 F 
I am on a whole 'nother level

 G 
Girl he only fucked you over cause you let him
 Am 
Fuck em girl I guess he didn't know any better

 Am 
Girl that man didn't show any effort
 F 
Do all I can just to show you you're special
 G 
Certain it's your love that holds me together
 Am 
Lately you say he been killin the vibe
 Am 
Gotta be sick of this guy
         F 
Pull up, Skurt
Get in the ride
 G 
Left hand is steering the other is gripping your thigh
 Am 
Light up a spliff and get high
            Am 
Shawty you deserve what you been missing
      F 
Looking at you I'm thinking he must be tripping
 G 
Play this song for him tell him just listen
 Am 
Don't
 Am F 
(Play this song for him...)
 G 
Don't

We Could Be The Same chords – MaNga Vsion 2

 ORDER: I V1 PC C1 INT V2 PC C2 B FC O


[INTRO]
 Dm  |  A7  |  A  |  Dm  |
 Dm  |  Gmadd9/D  |  A/D  |  Dm   n.c. |
 Dm  | | | |
  C  | |  Gm  |  Gm F A7/E   |



[VERSE 1]
 Dm 
      You could be the one in my dreams
 A7/D 
      You could be much more than you seem
 A 
      Anything I wanted in life
 Dm 
      Do you understand what I mean?
 Dm 
      I can see that this could be faith
 A7-9 
      I can love you more than they hate
 A 
      Doesn't matter who they will blame
n.c.
      We can beat them at their own game


[PRE-CHORUS]
 Dm A7 
   I can see it in your eyes
 A A7/C# Dm 
   It doesn't come as a surprise
 Dm A7 
   I see you dancing like a star
 A A/C# Dm  n.c.
   No matter how different we are


[CHORUS 1]
 Dm C Gm 
For all this time I've been loving you
            Bb C 
Don't even know your name
 Dm C Gm 
For just one night, we could be the same
    Gm F A/E Dm 
No matter what they say


[INTERLUDE]
(  Dm  ) | | | |
      C  | |  Gm  |  Gm F A/E  |


[VERSE 2]
 Dm 
    And I feel I'm turning the page
 A7                  n.c.
    And I feel the world is a stage
 A A/C# 
    I don't think that dra - ma will stop
 Dm 
    I don't think they'll give up the rage
 Dm 
    But I know the world could be great
 A7-9 
    I can love you more than they hate
 A 
    Doesn't matter who they will blame
n.c.
    We can beat them at their own game


[PRE-CHORUS]
 Dm A7 
   I can see it in your eyes
 A A7/C# Dm 
   It doesn't come as a surprise
 Dm A7 
   I see you dancing like a star
 A A/C# Dm  n.c.
   No matter how different we are


[CHORUS 2]
 Dm C Gm 
For all this time I've been loving you
            Bb C 
Don't even know your name
 Dm C Gm 
For just one night, we could be the same
    Gm F A/E Bb 
No matter what they say


[BRIDGE]
(  Bb  ) | |  Dm  |  A7  |
   Bb    | |  Dm  |  Gm F A/E  |


[FINAL CHORUS]
 Dm C Gm 
For all this time I've been loving you
            Bb C 
Don't even know your name
 Dm C Gm 
For just one night, we could be the same
    Gm F A/E Gm F A/E 
No matter what they say
    Gm F A/E Dm 
No matter what they say


[OUTRO]
(  Dm  ) | |

  |                |  C 
No matter what they  say (they say)
                 Gm 
We could be the same
    Gm F A/E        n.c.
No matter what they say

Salvations Tide chords – Kristian Stanfill Vsion 3

 Salvation's Tide
Passion 2016
by Riley Anne


 C 
There is no limit to Your power
                        Am 
There is no stopping what You plan
 G 
You give us faith to move the mountains
                   F 
And hope to dream again
 C 
We see the fires of revival
                     Am 
The darkness giving way to light
 G 
The glory of Your grace advancing
                 Am 
Let it burn up the night
                 F 
Let it burn up the night


Chorus
          G Am 
Let the walls come down in Jesus' name
           F C 
Let the lost be found in Jesus' name
       G 
Let the church arise
     Am F 
to shine Your light to the world
              C 
Shine Your light


 C 
Your house forever undivided
                  Am 
All Your sons and daughters one
 G 
At the cross we are united
                  Am 
Our hope is in the blood
                   F 
Our hope is in the blood


Chorus
          G Am 
Let the walls come down in Jesus' name
           F C 
Let the lost be found in Jesus' name
       G 
Let the church arise
     Am F 
to shine Your light to the world
              C 
Shine Your light


Bridge
 C F 
Salvation's tide is rising
 C F 
As all Your people seek Your face
 C F 
Your life a river flowing
 C 
To wash our sin and shame away
(repeat)


          G Am 
Let the walls come down in Jesus' name
           F C 
Let the lost be found in Jesus' name
       G 
Let the church arise
     Am F 
to shine Your light to the world
              C 
Shine Your light

La Promesa chords – Melendi Vsion 2

 CEJILLA EN EL PRIMER TRASTE.
CAPO ON THE FIRST FRET.
 


Intro:  Em C G D  x2
 G D C G 
Yo te prometo que yo, seré quien cuide tus sueños,
 C G C G 
Y cuando tú estés despierta el que te ayude a tenerlos.
          C G D C 
Yo te prometo una luna desnuda que sea testigo de nuestra locura,
          Em C 
Que al final de nuestros días nos va a sobrar una sombra.
     G D 
Que no cortaré más flores sólo para adornar otras,
            Em C 
Que confundirás tus manos con las mías,
          G D C      
Yo te prometo amor que eres lo más bonito que he visto en mi vida.

---Estribillo---
      Em C G D 
Yo podría prometerte el mundo, tú prométeme una madrugada,
          Em C G D 
Pa' cantarte por Compay Segundo mientras tú me bailas como Lady Gaga.
       G D C G 
Te prometo amor que solamente yo tengo en mi mente pedirte una noche,
        C G D 
Porque no necesitare más que "En el muelle de San Blas"
                      C 
sonando en nuestro coche.
    F G C F 
Si me das la oportunidad corazón, de que nos besemos a solas,
          Dm G Am D   Intro:  Em C G D  x2
Tu vida será una canción "When a Man Loves a Woman".
------------------------------------------------------------------------
 G D C G C 
Yo te prometo que yo,    jamás te haré una promesa,
                      G D Em G 
Que no pretenda cumplir,   jamás me iré a la francesa.
          C G D C 
Yo te prometo una luna desnuda que sea testigo de nuestra locura,
          Em C 
Que al final de nuestros días nos va a sobrar una sombra.
     G D 
Que no cortaré más flores sólo para adornar otras,
            Em C 
Que confundirás tus manos con las mías,
          G D C G 
Yo te prometo amor que eres lo más bonito que he visto en mi vida.

---Estribillo---
      Em C G D 
Yo podría prometerte el mundo, tú prométeme una madrugada,
          Em C G D 
Pa' cantarte por Compay Segundo mientras tú me bailas como Lady Gaga.
       G D C G 
Te prometo amor que solamente yo tengo en mi mente pedirte una noche,
        C G D 
Porque no necesitare más que "En el muelle de San Blas"
                      C 
sonando en nuestro coche.
    F G C F 
Si me das la oportunidad corazón, de que nos besemos a solas,
          Dm G Am D   Intro:  Em C G D  x2
Tu vida será una canción "When a Man Loves a Woman".
------------------------------------------------------------------------
         C G Am G 
Porque cuando un hombre ama a una mujer,
     Am C F G 
Lo sabe desde el momento en que la ve.
         F G C Am</s

Miserable Tabs – Lit Vsion 7

 Song: Miserable
 Lit
Tuning: eADGBE
: Brandon Bushnell


[Intro Clean]
E|---------------------------------2--2-----------------|------------------|
B|---------------------------------2----2---------------|------------------|
G|--7--7--77--2--2--22-------------2------2-------------|--7--7--77----4~--|
D|--7--7--77--2--2--22--2--2--22---4---------Repeat 3x--|--7--7--77----4~--|
A|--5--5--55--0--0--00--2--2--22---4--------------------|--5--5--55----2~--|
e|----------------------0--0--00---2--------------------|------------------|

 [Verse Distortion] 
E|----------------------------------------------------------|
B|----------------------------------------------------------|
G|----------------------------------------------------------|
D|--6--6--6--6--6--6--6--6--4-4-4-4-4-4-4-4-4-4-4-4-4-4-4---| 3x
A|--x--x--x--x--x--x--x--x--4-4-4-4-4-4-4-4-4-4-4-4-4-4-4---|
e|--5--5--5--5--5--5--5--5--2-2-2-2-2-2-2-2-2-2-2-2-2-2-2---|

E|-----------------------------------------------------|
B|-----------------------------------------------------|
G|--7--7--77-7-7-777--2--2--22--4-4-44-4-4-44----------|
D|--7--7--77-7-7-777--2--2--22--4-4-44-4-4-44----------|
A|--5--5--55-5-5-555--0--0--00--6-6-66-6-6-66----------|
e|-----------------------------------------------------|


[Verse 2 Distortion] 
E|----------------------------------------------------------|
B|----------------------------------------------------------|
G|----------------------------------------------------------|
D|--6--6--6--6--6--6--6--6--4-4-4-4-4-4-4-4-4-4-4-4-4-4-4---| 3x
A|--x--x--x--x--x--x--x--x--4-4-4-4-4-4-4-4-4-4-4-4-4-4-4---|
e|--5--5--5--5--5--5--5--5--2-2-2-2-2-2-2-2-2-2-2-2-2-2-2---|



E|-----------------------------------------------------|
B|-----------------------------------------------------|
G|--7--7--77-7-7-777--2--2--22--4-4-44-4-4-44----------|
D|--7--7--77-7-7-777--2--2--22--4-4-44-4-4-44----------|
A|--5--5--55-5-5-555--0--0--00--6-6-66-6-6-66----------|
e|-----------------------------------------------------|


[Distortion]
E|---------------------------------2--2-----------------|------------------|
B|---------------------------------2----2---------------|------------------|
G|--7--7--77--2--2--22-------------2------2-------------|--7--7--77----4~--|
D|--7--7--77--2--2--22--2--2--22---4---------Repeat 3x--|--7--7--77----4~--|
A|--5--5--55--0--0--00--2--2--22---4--------------------|--5--5--55----2~--|
e|----------------------0--0--00---2--------------------|------------------|


Solo (dist. w/auto wah): 
E----------------------------17-16----------17-16/--| 
B--14-14-12-14--14\17-17-14--------17-17-14---------| 
G---------------------------------------------------| 
D---------------------------------------------------| 
A---------------------------------------------------| 
e---------------------------------------------------| 

E-------------------------------17-16-----------17--17b-17b-17b-17b-17b-17b---| 
B--14-14-12-14--12-14--14/17-14-------17-17-14--------------------------------| 
G-----------------------------------------------------------------------------|
D-----------------------------------------------------------------------------|
A-----------------------------------------------------------------------------|
e-----------------------------------------------------------------------------|

 [Distortion]
E|-----------------------------------------------------|
B|-----------------------------------------------------|
G|--7--7--77-7-7-777--2--2--22--4-4-44-4-4-44----------|
D|--7--7--77-7-7-777--2--2--22--4-4-44-4-4-44----------|
A|--5--5--55-5-5-555--0--0--00--6-6-66-6-6-66----------|
e|-----------------------------------------------------|


[Clean Pre-outro] Outro is same thing just turn on Distortion. 
E|---------------------------------2--2-----------------|------------------|
B|---------------------------------2----2---------------|------------------|
G|--7--7--77--2--2--22-------------2------2-------------|--7--7--7

Gentle On My Mind chords – John Hartford Vsion 2

 In the verses, there's a pedal G.
Intro and 4 verses.


[INTRO]
 C  | | | |


[VERSE 1]
      C Cmaj7 C6 
It's knowing that your door is always open
          C Dm 
And your path is free to walk
      Dm Dmmaj7 Dm7 
That makes me tend to leave my sleeping bag
               G C 
Rolled up and stashed behind your couch
          C Cmaj7 
And it's knowing I'm not shackled
      C6 C 
By forgotten words and bonds
         C C Dm 
And the ink stains that are dried upon some line
      Dm Dmmaj7 
That keeps you on the back  roads
        Dm7 G 
By the rivers of my memory
      Dm G C 
That keeps you ever gentle on my mind


[VERSE 2]
          C Cmaj7 
It's not clinging to the rocks     and ivy
 C6 C Dm 
Planted on their columns now that binds me
    Dm Dmmaj7 
Or something that somebo  -  dy said
   Dm7 G C 
Because they thought we fit together walking
           C Cmaj7 C6 C 
It's just knowing that the world will not be cursing or forgiving
        C Dm7 
when I walk along some railroad track and find
             Dm Dmmaj7 
That you're moving on the back      roads
        Dm7 G 
By the rivers of my memory
         Dm G C 
And for hours you're just gentle on my mind


[VERSE 3]
            C Cmaj7 
Though the wheat fields and the clothes lines
         C6 C Dm7 
And the junkyards and the highways come between us
          Dm Dmmaj7 Dm7 
And some other woman's cryin' to her mother
            G C 
'Cause she turned and I was   gone
   C Cmaj7 C6 C 
I still might run in silence, tears of joy might stain my face
         C Dm7 
And the summer sun might burn me 'til I'm blind
         Dm Dmmaj7 Dm7 G 
Oh, but not to where I cannot see you walkin' on the back roads
        Dm G C 
By the rivers flowing gentle on my mind


[VERSE 4]
   C Cmaj7 C6 
I dip my cup of soup back from a gurglin',
           C Dm 
Cracklin' cauldron in some train yard
    Dm Dmmaj7 
My beard a rustling, a cold  towel,
       Dm7 G C 
and a dirty hat pulled low across my face
         C Cmaj7 
Through cupped hands 'round the tin  can
      C6 C Dm7 
I pretend to hold you to my breast and find
             Dm Dmmaj7 
That you're waiting from the back roads
        Dm7 G7 
By the rivers of my memories
      Dm G C    |  Csus4  |  C  |  C7sus4  |  C  |
Ever smilin', ever gentle on my mind

Left Undone chords – Jars Of Clay Vsion 2

 There were some annoying parts to do, so if something sounds wrong, I am open to all suggestions.
Intro:  F# G#m B A#m F# G#m D#m 

[Verse I]
 F# G#m B A#m F# 
   I can hear the choir singing from the top of their lungs
                                          G#m D#m 
Standing outside in the cold wondering which way I should run
 F# G#m B A#m F# 
   I thought that everything would turn out right, now look what I’ve become
                                           G#m D#m 
A man I wouldn’t have respect for if I’d met me when I was young

[Chorus]
 B C# D#m F# 
  I will try to make up for lost time forsaking all I’ve done and left undone
 B C# F# D#m 
  I will try to make up for lost time forsaking all I’ve done and left undone

[Interlude] 
 B D#m C# F# G#m B A#m F# G#m D#m 

[Verse II]
 F# G#m B A#m F# 
   Trace the roots of old cathedrals just to see where they’d go
                                          G#m D#m 
A maze of tributaries feeding where the rivers would never flow
 F# G#m B A#m F# 
   Pieces of my life collect in the shape of a smoking gun
                                                     G#m D#m 
I thought that everything would turn out right but look what I’ve become

[Chorus]
 B C# D#m F# 
   I will try to make up for lost time forsaking all I’ve done and left undone
 B C# F# D#m B D#m 
   I will try to make up for lost time forsaking all I’ve done and left undone
 C# G#m D#m C# 
All I’ve done and left undone


[Bridge]
 G#m B F# C# G#m B F# C#    
    I will leave this firing line, 
 G#m B F# C#     
    I have nothing to rewind

[Chorus]
 B C# D#m F# 
  I will try to make up for lost time forsaking all I’ve done and left undone
 B C# F# D#m 
  I will try to make up for lost time forsaking all I’ve done and left undone
 B C# D#m F# B D#m 
  I will try to make up for lost time forsaking all I’ve done and left undone
 G#m7 B D#m C# 
All I’ve done and left undone
 G#m B D#m C# 
All I’ve done and left undone

Dad chords – Neele Ternes Vsion 4

 Intro:
 Bb                   
  I never told you how
 Dm 
  How much you mean to me
 Gm 
  What in the world I would do
 Eb Gm F Eb Eb    
  I just never made it through to you, oh, to you


Verse1:
                Bb                 
  There goes a day, there goes a week
           Dm 
  So many goals I had to reach
              Gm 
  The more I did, the less I cared
              Eb 
  The more I miss the love you’ve shared
                Bb 
  If life is a song, somehow it’s sad
                    Dm 
  I don’t know the words without you, Dad
                     Gm 
  You’ve been on my mind all the time
                 Eb 
  And I’m missing you


Pre-Chorus:
                Gm F Eb Eb 
  Home used to be just some walls that I know
                    Gm F Eb Eb 
  But the truth is home means nothing without you, So i gotta say: 


Chorus:
 Bb Dm 
  won't you gro-o-o-o-ow-old
                          Gm 
  Cause it's you-o-o-o-o-o
                     Eb 
  That i wa-ant to list
       F Bb 
  As long as i need you here
                        Dm 
  And i'm be-e-e-eging you
                          Gm 
  Daddy pleace do-o-on't leave
                              Eb 
  You once told your little girl
             F   
  You're unbreakable


Verse2:
                Bb 
  There goes a month, there goes a year
            Dm 
  So many things out there i fear
               Gm 
  You help me up when i was dowm
                 Eb 
  You taught me how to stand my ground
                  Bb 
  This life is a song, happy and sad
                       Dm 
  And i don't want to sing without you Dad
               Gm 
  Maybe it's selfish when i say these words
                  Eb 
  But i'm missing you


Pre-Chorus:
                Gm F Eb Eb 
  Home used to be just some walls that I know
                    Gm F Eb Eb 
  But the truth is home means nothing without you, So i gotta say: 


Chorus:
 Bb Dm 
  won't you gro-o-o-o-ow-old
                          Gm 
  Cause it's you-o-o-o-o-o
                     Eb 
  That i wa-ant to list
       F Bb 
  As long as i need you here
                        Dm 
  And i'm be-e-e-eging you
                          Gm 
  Daddy pleace do-o-on't leave
                              Eb 
  You once told your little girl
             
  You're unbreakable

Outro:
    Bb Dm Gm Eb 
  Oh, oh oh
    Bb Dm Gm Eb 
  Oh, oh ohoh
                    Gm F Eb Eb  
  The truth is my home means nothing without you     
   
   Bb

The Day You Stop Lookin Back chords – Thomas Rhett Vsion 2

 Intro:  G ,  Em ,  Cadd9 ,  Am 


Verse 1:
                     G 
Stop starin' at the rear view
                         Em 
You ain't checkin' your hair
      Cadd9 
That wheel has spun and them lights are out
             Am 
There ain't nothin' for you back there
                 G Em 
Stop holdin' on so dang tight, 'bout time you let go
             Cadd9 
Well he's a heart breakin', let you down son of a gun
             Am 
But I ain't sayin' nothin' you don't know


Chorus:
     G Em 
The day that you stop lookin' back
              Cadd9 
You're gonna find that the future
 Am 
Sure beats the hell outta the past
        G 
Now he ain't no good
              Em 
I guess he's good as gone
     Cadd9 Am 
The day you stop lookin' back, girl yeah
                             G Em Cadd9 Am 
Is the day you start movin' on, yeah, yeah, yeah


Verse 2:
                  G 
That sun's gonna come up
                 Em 
It's gonna feel good
           Cadd9 
And after all the rain and pain you've seen
            Am 
I hope you soak it up like you should
                         G 
Now and then it's gonna stir up
                            Em 
But when you hear that old song
                      Cadd9 
But don't let it get to ya baby
           Am 
It's only three and a half minutes long


(Chorus)

 G Em Cadd9 Am 
Oh, oh-oh


Bridge:
          G 
Well now hey girl why you lookin' back like that
           Em 
Don't you wanna trade tears for laughs and love
 Cadd9 Am 
That could be us tonight


Chorus:
*first half soft*
     G Em 
The day that you stop lookin' back
              Cadd9 
You're gonna find that the future
 Am 
Sure beats the hell outta the past
        G 
Now he ain't no good
              Em 
I guess he's good as gone
     Cadd9 Am 
The day you stop lookin' back, girl yeah
                              G Em Cadd9 Am 
Is the day you start movin' on, yeah, yeah, yeah
                              G Em Cadd9 Am 
Is the day you start movin' on


Outro:
*soft*
                     G 
Stop staring at the rear view
                         Em 
You ain't checkin' your hair
      Cadd9 
That wheel is spun and them lights are out
             Am 
There ain't nothin' for you back there

Degenerate Tabs – Blink-182 Vsion 5

 -------------------------------------------------------------------------------
                             Degenerate - blink-182
-------------------------------------------------------------------------------

: Strobber

Tuning: Standard

This song is fairly hard, so it's perfect if you're an intermediate player. 
Version 3 has the best rating, however the verses and the solo are tabbed wrong.
This tab fixes it, I also tried my best to make it as easy to read.

Verse 1:

e|--------------------------------------
B|--------------------------------------
G|---3---------------7-------5----------
D|---3-------3-------7-------5----------
A|---1-------3-------5-------3----------
E|-----------1--------------------------

Verse 2:

e|--------------------------------------
B|--------------------------------------
G|----3------2------3------2------------
D|------3------3--1---3------3p0--------
A|--1--------------------3--------------
E|---------1----------------------------

Chorus:

No specific strumming pattern

e|--------------------------------------
B|--------------------------------------
G|---3---------------8--------10--------
D|---3-------3-------8--------10--------
A|---1-------3-------6--------8---------
E|-----------1--------------------------

Solo 1:

End with a Bb power chord the last time

e|------------------------------------------------------|--------
B|------------------------------------------------------|--------
G|--3--3-3-2-2-2----------------3--3-3-2-2-2--5-3-2-3-5-|----3---
D|---------------5--5-5-3--3-3--------------------------|----3---
A|------------------------------------------------------|----1---
E|------------------------------------------------------|--------

Solo 2:

e|----------------------------------------------------------------------------------------------
B|-3-4-6-6-4-3-4-3---3---4-3--------------------------------------------------------------------
G|-----------------5---5-----5-3-2-2-2p0----2-3p2---3p2---3p2-0---------------------------3-----
D|----------------------------------------5-------5-----5--------0-1-1s3-3-3-3-3s1-1p0-0--3-----
A|----------------------------------------------------------------------------------------1-----
E|----------------------------------------------------------------------------------------------

End with:

e|---------------
B|---------------
G|--3--3--3--3---
D|--3--3--3--3---
A|--1--1--1--1---
E|---------------

-------------------------

Verse 1 x4
Verse 2 x4
Chorus  x2
Solo 1  x2
Verse 1 x4
Verse 2 x4
Chorus  x2
Solo 1  x2 (this time don't end with the Bb power chord)
Solo 2  x1
Chorus  x2
Ending  x1


Thats it, have fun!