Tag: washya

Industry Killer Tabs – Washya

 -------------------------------------------------------------------------------
                            Industry Killer - Washya
-------------------------------------------------------------------------------
:


Tuning: Drop A (AEADF#B)
Intro
B|------------------------|
F#|-----------------------|
D|------------------------|
A|-0-00-1-00-1-00-1-------|
E|-0-00-1-00-1-00-1-------|
A|-0-00-1-00-1-00-1-111111|x3
PM * **   **   **   ****** 

Part 2
B|--------------|
F#|-------------|
D|----------10\\|
A|----------10\\|
E|-66666555/8-\\|
A|--------------|

Verses
B|-------------------------|
F#|------------------------|
D|---------65-----------2-3|
A|-00-32-0-65-656-0-143-2-3|
E|-00-32-0-43-656-0-143-0-1|
A|-00-32-0----656-0-143----|x8
PM **    *        * 

Chorus
B|------------------------------------|
F#|-----------------------------------|
D|--------------876--------------987\\|
A|--------------876--------------987\\|
E|-124545657876-654-457656876787-765\\|
A|-124545657876-----457656876787------|



************************************

| /   slide up
| \   slide down
| h   hammer-on
| p   pull-off
| ~   vibrato
| +   harmonic
| x   Mute note
| b   Bend
| pb  Pre-bend
| br  Bend release
| pbr Pre-bend release
| brb Bend release bend

************************************

Blood Of The Empress Tabs by Washya

 -----------------------------------------------------------------------------
                        Blood Of The Empress - Washya
-----------------------------------------------------------------------------
Tuning: Drop D (DADGBE)
Intro
E|--------------------------------------------------------|
B|--------------------------------------------------------|
G|--------------------------------------------------------|
D|---------------7---------------3*-----------------------|
A|-------5---------------8--------------------------------|
D|-0-000---0-000---0-000---0-000----0-000-0-3-5-0-5-3-2-1-|
PM . ...   . ...   . ...   . ...    . ... 

E|------------------------------------------------------------------------|
B|------------------------------------------------------------------------|
G|------------------------------12*---------------------------------------|
D|---------------7-------8-8/10-------------------------4h5p4-----------3-|
A|-------5--------------------------------3-------------------7-5-3-----3-|
D|-0-000---5-555---5-555------------0-000---3333-3-3333-------------5h6p3-|x4
PM . ...   . ...   . ...            . ...   .... . ....  

Verses
E|-------------------------------------------------------------|
B|-------------------------------------------------------------|
G|-------------------------------------------------------------|
D|---------------------------------------8p7p5---5-----------3-|
A|----------------7h8h9p8p7--------------------8---7h8p5-----3-|
D|-0000-00-00-7h8-----------8-8888-88-88-----------------6p5p3-|
PM .... .. ..                 .... .. .. 

Chorus
E|------------------------------------------------------------------------|
B|------------------------------------------------------------------------|
G|--------------------------------8\7\6--------------------------------9*-|
D|-0-5-2-0-5-2-----6-0-3-6-3------8\7\6-6-5-3-----3-6---6-0-6--------7----|
A|-0-5-2-0-5-2-----6-0-3-6-3------6\5\4-6-5-3-----3-6---6-0-6------6------|
D|-0-5-2-0-5-2-22226-0-3-6-3-3333-------6-5-3-33333-6-0-6-0-6-6666--------|
PM             ....          ....             ....    .       ....   

Interlude (slow and eerie) 
E|------------------------------------ <12>----------------------------|
B|-------3------------------------------------------------------------|
G|-----0----------------------------------------5---------------------|
D|---2-------5-----0---3p2p0-------10------10\7---7-------5-3-7-----5-|
A|-------------5\2-----------5/7--------------------------------5-3-5-|
D|-0-------5---------0-----------0------------------0-3h5-----------5-|x2


Heavy Ending (fadeout)
E|-----------------------------------------------------------------------|
B|-----------------------------------------------------------------------|
G|-----------------------------------------------------------------------|
D|-------3---3/6-------------777777\77777-----7---7p4------------765-635-|
A|-------3---3/6--------3p2*-555555\44444---4---7-----7p4-7777h8-765-635-|
D|-0-000-3-0-3/6--0h3p0-------------------0---------------7777h8-----635-|
PM * ***                          </12>

Super Brotherin Tabs by Washya

 ------------------------------------------------------------------------------
                        Super Brotherin - Washya
------------------------------------------------------------------------------
Tuning: Standard (EBGDAE)
Intro
E|---------------------------|   |------------|
B|---------------------------|   |------------|
G|---------------------------|   |------------|
D|-------------4-------------|   |-777-33-5\\-|
A|-----5-----5---5-4-3-3/4/5-|   |-555-11-3\\-|
E|-3-6---3-6-----------1/2/3-|x3 |------------|
PM * * * * * * * * * * 

Verses
E|-----------------|    |-------------------|
B|-----------------|    |-------------------|
G|-----------------|    |-------------------|
D|-----------------|    |-------------------|
A|---------5-4-3---|    |-55---55---55---3~-|
E|-3-6-3-6-------5-|x13 |-33-x-33-x-33-x-1~-|
PM * * * *       *

Chorus
E|-------------------------------------------------|
B|-------------------------------------------------|
G|-------------------------------------------------|
D|---------------------55---33-----------------7\\-|
A|-55---55---55---55---33---11---55---7--7--7--7\\-|
E|-33-x-33-x-33-x-33-x----x----x-33-x-5--5--5--5\\-|

Love Stained Tabs by Washya

 ------------------------------------------------------------------------------
                           Love Stained - Washya
------------------------------------------------------------------------------
Tuning: D Standard (DAFCGD)
Intro/Verses
D|-----------------------------------------------------------------2-|
A|-----------------------------------------------------------------2-|
F|-----2-------2-------0-------2---------0---------2-----0-----2---4-|
C|---4---4---4---4---3---3---4---4-----2---2-----2-----2-----4---4-4-|
G|-2-------2-------2-------2-------2-4-------4-4-----4-----2-------2-|
D|-----------------------------------------------------------------2-|

Chorus
D|-----------------|
A|-----------------|
F|-----------------|
C|-44-44-44-/8\7\6-|
G|-22-22-22-/6\5\4-|
D|-22-22-22-/6\5\4-|
PM ** ** ** 

breakdown 1 (play fast)
D|-----------------------------------------------------------|
A|-----------------------------------------------------------|
F|-----------------------------------------------------------|
C|-----------------------------5*-------------------45678910-|
G|------4---5--------------4------------------4---5-2345678--|
D|-2222---2---2452345-2222---2---2452345-2222---2---2345678--|
PM ****   *   ******* ****   *   ******* ****  

Breakdown 2 (fade til end)
D|-----------------------------------------|
A|-----------------------------------------|
F|-----------------------------------------|
C|-3/5-3/5-3/5-5/6-3-3-----------------1-1-|
G|-1/3-1/3-1/3-3/4-1-1-----------------1-1-|
D|-1/3-1/3-1/3-3/4-1-1-1h3-1h4-1h3-1h4-1-1-|
PM                     *** *** *** *** 

Skidding Brakes Tabs by Washya

 ------------------------------------------------------------------------------
                               Skidding Brakes - Washya
------------------------------------------------------------------------------
Tuning: Standard (EBGDAE)
Intro/verses (guitar1) (slow)
E|-------------------------------------------------------------------|
B|-------------------------------------------------------------------|
G|-------------------------------------------------------------------|
D|-----------------------------------5-5-5-5-5-5-5-5/8-8-8-8-8-8-8-8-|
A|-7-7-7-7-7-7-7-7-7\4-4-4-4-4-4-4-4---------------------------------|
E|-------------------------------------------------------------------|x3
PM * * * * * * * * * * * * * * * * * * * * * * * * * * * * * * * * * 

Intro 2/Verses/Guitar 2
E|--------------------------------------------------------------------|
B|--------------------------------------------------------------------|
G|-----------------------------------6-6-6-6-6-6-6-6/1010101010101010-|
D|-8-8-8-8-8-8-8-8\6-6-6-6-6-6-6-6-6-5-5-5-5-5-5-5-5/8-8-8-8-8-8-8-8--|
A|-7-7-7-7-7-7-7-7\4-4-4-4-4-4-4-4-4----------------------------------|
E|--------------------------------------------------------------------|x3

Chorus
E|-------------------------------|
B|-------------------------------|
G|-------------------------------|
D|-22-------3---5-22-------3-2-2-|
A|-22---3-5-1-3-3-22---3-5-1-0-2-|
E|-00-0-1-3---1---00-0-1-3-----0-|
PM ** *           ** *     

Cold Art Of War album Tabs by Washya

 -----------------------------------------------------------------------------
                           Cold Art Of War (Album) - Washya
-----------------------------------------------------------------------------
Tuning: Drop C (Whole Album)
1. Cold Art Of War 
Tuning: Drop C (DAFCGC)
Intro
D|-----------------------------------------------------|
A|-----------------------------------------------------|
F|-----------------------------------------------------|
C|-----------------------------------------------------|
G|-----------------------------------------------------|
C|-0000006666665555511111111-0000006666665555551111111-|x4
PM ************************* ************************* 

Part 2 (Chorus)
D|-----------------------------------------------|
A|-----------------------------------------------|
F|-----------------------------------------------|
C|-----------------------------------------------|
G|-000000066666555551111110000006666655555511111-|
C|-000000066666555551111110000006666655555511111-|x2

Verses
D|-------------------------------------------------------|
A|-------------------------------------------------------|
F|-------------------------------------------------------|
C|-------------------------------------------------------|
G|-1-0-1-0-1-0-1-0-0000-11-0-1-0-2\1-0-1-2\1-0-1-1-0-1-0-|
C|-1-0-1-0-1-0-1-0-0000-11-0-1-0-2\1-0-1-2\1-0-1-1-0-1-0-|

Interlude
D|----------------------------------|
A|----------------------------------|
F|----------------------------------|
C|----------------------------------|
G|-1143-143-143-143-143-1143-0-1-3~-|
C|-1143-143-143-143-143-1143-0-1-3~-|


2. Cold Shadows 
Tuning: Drop C (DAFCGC)
Intro
D|-------------------------------------------------------------|
A|-------------------------------------------------------------|
F|-------------------------------------------------------------|
C|-------------------------------------------------------------|
G|-00-00-0000-00-00-00-0000-00-00-00-0000-00-00-00-0000-00-1-0-|
C|-00-00-0000-00-00-00-0000-00-00-00-0000-00-00-00-0000-00-1-0-|x2
PM ** ** **** ** ** ** **** ** ** ** **** ** ** ** **** **   

Verses
D|--------------------------------------|
A|--------13b--------15b--------13b-----|
F|--------------------------------------|
C|--------15b--------13b--------11b-----|
G|-1-0-xx-----1-0-xx-----1-0-xx-----2\1-|
C|-1-0-xx-----1-0-xx-----1-0-xx-----2\1-|

Chorus
D|--------------------------------------|
A|--------------------------------------|
F|-------5\4-------------5*-------10\7b-|
C|-1-3-6-5\4-3-1-3-1-6\5----0-1-0-------|
G|-1-3-6-3\2-3-1-3-1-6\5----0-1-0-8-\5b-|
C|-1-3-6-----3-1-3-1-6\5----0-1-0-------|


3. Black Ice
Tuning: Drop C (DAFCGC)
Intro
D|-15-13----------12---------|
A|-------12-14-15------------|
F|-------------------12h14~~-|
C|---------------------------|
G|---------------------------|
C|---------------------------|x13

Verses
D|---------|
A|---------|
F|------33-|
C|------22-|
G|-12\\-11-|
C|-12\\-11-|

Chorus
D|----------------------------------------------|
A|----------------------------------------------|
F|-------------------------------------3333-----|
C|-------------------------------------2222-----|
G|-3-2-0-2-222-3-2-0-2-222-3-2-0-2-222-1111-000-|
C|-3-2-0-2-222-3-2-0-2-222-3-2-0-2-222-1111-000-|
PM         ***         ***         *** 

4. Freedom Fighters
Tuning: Drop C (DAFCGC)
Intro
D|-------2-/3h5p3p2h3p2---------3-------2-2h3p2---------|
A|---3------------------3---3-------3-----------3p2---2-|
F|-2---2------------------2---2---2---2-------------3-2-|
C|----------------------------------------------------0-|
G|------------------------------------------------------|
C|------------------------------------------------------|

Verses
D|-------------------------------------|
A|-------------------------------------|
F|-44-77-------------------------------|
C|-44-77-55-44-00-/8-8-8-7--10\9-555h7-|

Static Coma Tabs by Washya

 -----------------------------------------------------------------------------
                                  Static Coma - Washya
-----------------------------------------------------------------------------
Tuning: Drop C (DAFCGC)
Intro
D|------------------------------------|
A|------------------------------------|
F|------------------------------------|
C|------------------------------------|
G|-xx-xx-x-xxx-xx-xx-xx-xxxx-xx-xx-xx-|
C|-xx-xx-x-xxx-xx-xx-xx-xxxx-xx-xx-xx-|x15 

Part 2
D|------------------------------------------|
A|------------------------------------------|
F|------------------------------------------|
C|-6---6---6---6---6----2---2---2---2---2---|
G|-6-5-6-5-6-5-6-5-6-5\-2-3-2-3-2-3-2-3-2-3-|
C|---5---5---5---5---5\---3---3---3---3---3-|x2

Verses
D|-----------------------------------------------------------|
A|-----------------------------------------------------------|
F|-7b\6b----------------7b\4b----------------7b/1010101010\--|
C|-----------------------------------------------------------|
G|-5b\4b----------------5b\2b----------------5b/8-8-8-8-8\88-|
C|-------0-000000-0-000-------0-000000-0-000--------------88-|
PM       * ****** * ***       * ****** * *** 

Chorus
D|------------------------------------------------------------------------|
A|------------------------------------------------------------------------|
F|------------------------------------------------------------------------|
C|-4-3-1--------6\3/5-6\3/5-8-7-5--------10\9/10-10\9/10-------------10\\-|
G|-4-3-1--------4\1/3-4\1/3-8-7-5--------8-\7/8--8-\7/8--------------10\\-|
C|-4-3-1-1-11-1-------------8-7-5-5-55-5-----------------888-88-88-8h10\\-|
PM       * ** *                   * ** *                 *** ** ** * 

Rations Tabs by Washya

 -----------------------------------------------------------------------------
                           Rations - Washya
-----------------------------------------------------------------------------
Tuning: Drop D (EBGDAD)
Intro/Verses
E|-----------------------|    |-----------------------|
B|-----------------------|    |-----------------------|
G|-----------------------|    |-----------------------|
D|-----------3-3p2p0-----|    |-----------------------|
A|---3---2-----------3p2-|    |---3---2---6-5-3-5-3-0-|
D|-0---0---0-------------|x15 |-0---0---0-6-5-3-5-3-0-|
                                (Ending)

Chorus
E|-------------------------------------------|
B|-------------------------------------------|
G|-------------------------------------------|
D|-------------------------------------------|
A|-66666666/99999999\8888888-3-5-3-6-5-3-5-0-|
D|-66666666/99999999\8888888-3-5-3-6-5-3-5-0-|

interlude (Distortion)
E|---------------------------------------------------------------------|
B|---------------------------------------------------------------------|
G|---------------------------------------------------------------------|
D|-5/77\55-1010-8-7----------------10-9-7-9-10-99-7-5------------------|
A|-3/55\33-8-8--6-5-3-55-33-66-5-0-8--7-5-7-8--77-5-3-3-5-3-5-3-55-3-0-|
D|------------------3-55-33-66-5-0--------------------3-5-3-5-3-55-3-0-|

Fire And Fire Tabs by Washya

 -------------------------------------------------------------------------------
                        Fire and Fire - Washya
-------------------------------------------------------------------------------
Tuning: Drop D (EBGDAD)
Intro
E|--------------------------|
B|--------------------------|
G|-9999-666-6---------------|
D|-9999-666-6-0-333-4-44-66-|
A|-7777-444-4-0-333-4-44-66-|
D|------------0-333-4-44-66-|x3 

Verses
E|------------------------------------------|
B|------------------------------------------|
G|-9-9-9-9-777/10101010--9-9-9-9-55557778\\-|
D|-9-9-9-9-777/10101010--9-9-9-9-55557778\\-|
A|-7-7-7-7-555/8-8-8-8---7-7-7-7-33335556\\-|
D|------------------------------------------|

Chorus
E|--------------------------------------------------|
B|--------------------------------------------------|
G|----55-77--------------------9-9-9-9--------------|
D|-33-55-77-77-7h8p7-222333555-9-9-9-9-5555/888p7\\-|
A|-33-33-55-77-7h8p7-222333555-7-7-7-7-5555/888p7\\-|
D|-33-------77-7h8p7-222333555---------5555/888p7\\-|

Are You Ready Tabs by Washya

 -----------------------------------------------------------------------------
                             Are You Ready ? - Washya
-----------------------------------------------------------------------------
Tuning: Drop D (EBGDAD)
Intro/Chorus
E|---------------------------------------------------|
B|---------------------------------------------------|
G|---------------------------------------------------|
D|---------5p4-------------5p4-----5p4-----5p4-----3-|
A|-5h7-7-7-----7p5-5h7-7-7-----7p5-----7p5-----7p5p3-|
D|-------------------------------------------------3-|x3


Verses
E|----------------------------------------------------|
B|----------------------------------------------------|
G|--------------5-5--------------3-3------------------|
D|--------------5-5--------------3-3--------------3-3-|
A|--------------3-3--------------1-1--------------3-3-|
D|-000000000000-----555555555555-----333333333333-3-3-|
PM ************     ************     ************ 

Sweet Sensation Tabs by Washya

 -------------------------------------------------------------------------------
                             Sweet Sensation - Washya
-------------------------------------------------------------------------------
Tuning: Standard 
Intro
E|------------------|   |-0-|
B|-3-3----3-3-------|   |-3-|
G|------2---------2-|   |-2-|
D|----2-------2-2---|   |-0-|
A|------------------|   |-0-|
E|------------------|x2 |-0-|x1

Verses
E|------------------|   |--------------------|
B|-3----------------|   |--------------------|
G|-2-2-2-22---------|   |--------------------|
D|-2-2-2-22-------2-|   |-------6p5p3--------|
A|----------3p2p0-2-|   |-0h3h5-------445678-|
E|----------------0-|x5 |-------------223456-|

Chorus
E|-----------------------------|
B|-----------------------------|
G|-4-44-2-4-4-4444-4-2222-4-44-|
D|-4-44-2-4-4-4444-4-2222-4-44-|
A|-2-22-0-2-2-2222-2-0000-2-22-|
E|-----------------------------|

Break
E|---------13b/16b-----17-17p16~~~\\-|
B|-7b/9b--/15b/18b-15b---------------|
G|-9b/11b/---------17b---------------|
D|-----------------------------------|
A|-----------------------------------|
E|-----------------------------------|

Dig Mudvayne Tabs by Washya

 -------------------------------------------------------------------------------
                            Dig (Mudvayne) - Washya
-------------------------------------------------------------------------------
Tuning: Drop C (DAFCGC)
intro
D|--------|
A|--------|
F|-----7b-|
C|-0-0----|
G|-0-0-5b-|
C|-0-0----|x4

Main riff/Verses/Chorus (chad gray - Yeeeeeeeeeeeaaaaaaaahhhhh!!!!!)
D|-----------------------------------| |--------|
A|-----------------------------------| |--------|
F|-----------------------------------| |-----7b-|
C|-----------------------------------| |-0-0----|
G|-3-2--3-2-0-2-0-3-2--3-2-0-2-0-3-2-| |-0-0-5b-|
C|-3-2--3-2-0-2-0-3-2--3-2-0-2-0-3-2-| |-0-0----|

interlude (let me help you hold the glock against your head.........)
D|--------------------------------------------------------|
A|--------------------------------------------------------|
F|--------------------------------------------------------|
C|--------------------------------------------------------|
G|-2-2-222-22-2-2-2/3/5-4-3-22-2-2-222-32-3203032-2-2-543-|
C|-2-2-222-22-2-2-2/3/5-4-3-22-2-2-222-32-3202032-2-2-543-|

Lifeline Tabs by Washya V2

 -----------------------------------------------------------------------------
                                    Life Line - Washya
-----------------------------------------------------------------------------
Tuning: Drop C (DAFCGC)
Intro
D|----------------------------------------------------------|
A|----------------------------------------------------------|
F|----------------------------------------------------------|
C|------8\7---------------8\7---------------5---7---9-------|
G|------6\5------2/3------6\5------2/3--------3---5---7-7\\-|
C|-0000-----0000-2/3-0000-----0000-2/3-0000-------------7\\-|x8
PM ****     ****     ****     ****     **** 

Main Riff/Chorus
D|-------------------------------------------------------------------------|
A|-------------------------------------------------------------------------|
F|----------------------------------------------5555-----5-----5-----------|
C|-----8\7---------5\4-------------7777\666-----5555---------5----101010\9-|
G|-3/5-6\5-5/6-2/3-3\2-1h3h4-3h5h6-5555\444-0h3-3333---3---3-----/8-8-8-\7-|
C|-3/5-----5/6-2/3-----1h3h4-3h5h6----------0h3-3333-3---------------------|
PM                                                   * *   * *  

Verses
D|--------------|   |------------------------------------------------|
A|--------------|   |------------------------------------------------|
F|------------5-|   |------------------------------------------------|
C|------------5-|   |--------------2p0-3p2p0-----0---2p0-0-----------|
G|-00-0-2/3\2-3-|   |-00-0-00-00-3-----------2h3---3-------2p0-3\2\0-|
C|-00-0-2/3\2---|x5 |-00-0-00-00-------------------------------3\2\0-|x3
PM ** *               ** * ** ** * *** ***** *** * * *** * *** 

Solo/Lead (small and fast)
D|------------------------------------------------------------------10p8p7~-|
A|----------------------------------------------------8h10---8h10p8---------|
F|-/8bv~---8h10p8-----------------------8h10---8h10p9------9----------------|
C|-------9--------9bv~----8h10---8h10p9------9------------------------------|
G|---------------------/9------9--------------------------------------------|
C|--------------------------------------------------------------------------|

D|-10p7---7h10p7---7h10p7------------------------12p10----13p12p10h13p12-|
A|------9--------9--------9p8p7---8p7---8p7h9h10-------12----------------|
F|------------------------------9-----9----------------------------------|
C|-----------------------------------------------------------------------|
G|-----------------------------------------------------------------------|
C|-----------------------------------------------------------------------|

D|-10h13p10h13p10h13p10-------15p13----14p12----------12----------17-17-17b-|
A|----------------------12h13-------15-------15p14p12----15p14p12-----------|
F|--------------------------------------------------------------------------|
C|--------------------------------------------------------------------------|
G|--------------------------------------------------------------------------|
C|--------------------------------------------------------------------------|

Tuning: Drop C (DAFCGC)
Intro
D|----------------------------------------------------------|
A|----------------------------------------------------------|
F|----------------------------------------------------------|
C|------8\7---------------8\7---------------5---7---9-------|
G|------6\5------2/3------6\5------2/3--------3---5---7-7\\-|
C|-0000-----0000-2/3-0000-----0000-2/3-0000-------------7\\-|x8
PM ****     ****     ****     ****     **** 

Main Riff/Chorus
D|-------------------------------------------------------------------------|
A|-------------------------------------------------------------------------|
F|----------------------------------------------5555-----5-----5-----------|
C|-----8\7---------5\4-------------7777\666-----5555---------5----101010\9-|
G|-3/5-6\5-5/6-2/3-3\2-1h3h

Drifting Through Life Tabs by Washya

 -------------------------------------------------------------------------------
                      Drifting Through Life - Washya
-------------------------------------------------------------------------------
Tuning: Drop D (EBGDAD)
Intro
E|------------------------------------------------------|
B|------------------------------------------------------|
G|-4444444/777777/9999999/1010101010/1212121212121212\\-|
D|------------------------------------------------------|
A|-2222222/555555/7777777/8-8-8-8-8-/1010101010101010\\-|
D|------------------------------------------------------|x14 

Part 2
E|---------------|
B|---------------|
G|--99----77p5~~-|
D|-----55--------|
A|---------------|
D|---------------|

Verses
E|--------------------------------------|
B|--------------------------------------|
G|-33-33--xx-x-3-5555-----------------3-|
D|-xx-33--33-33x-xxxx-----------------3-|
A|-11-11--11-111-3333-3p1---3p1-1-111-1-|
D|-xx-xx--xx-xxx-xxxx-----3-----1-111-1-|
                      *** * *** 

Chorus
E|-----------------------------------------------------------------|
B|-----------------------------------------------------------------|
G|-6666-4444-8888\7777-3333----------------------------------------|
D|-6666-4444-8888\7777-3333-6666-6-6\5555-5-5\3333-----------------|
A|-4444-2222-6666\5555-1111-4444-4-4\3333-3-3\1111-1h3p1-3p1-2h3p1-|
D|-4444-2222-6666\5555-1111------------------------------3---2h3p1-|

True Justice Tabs by Washya

 -----------------------------------------------------------------------------
                                   True Justice - Washya
-----------------------------------------------------------------------------
Tuning: Drop D (DADGBE)
Intro
E|----------------------------------------2-------------------------------|
B|-------3---------------3------------3------------2----------------------|
G|-----------2---------------2------2---2------2--------------------------|
D|---4-----------2---4-----------2-----------0---0---------7-------5------|
A|-2---2---0---0---2---2---0---0-----------------------5-------3-----33h5-|
D|---------------------------------------------------0---0---0---0---33h5-|

Verses
E|---------------------------------|   |---------------------------------|
B|---------------------------------|   |---------------------------------|
G|-------5-------2-------8---------|   |-------77777-------55555---------|
D|-0-5-6-5-0-2-3-2-0-5-6-8-4-5-6\\-|   |-0-1-0-77777-0-1-0-55555-5h6-3-0-|
A|-0-5-6-3-0-2-3-0-0-5-6-6-4-5-6\\-|   |-0-1-0-55555-0-1-0-33333-5h6-3-0-|
D|-0-5-6---0-2-3---0-5-6---4-5-6\\-|x6 |-0-1-0-------0-1-0-------5h6-3-0-|x1

Chorus
E|------------------------------------------------------------------------|
B|------------------------------------------------------------------------|
G|-88887777-77778888-33333333-9999-1010-----------------------------------|
D|-88887777-77778888-33333333/9999-1010-77777h8-55-5-55-------3p2p0/6--\\-|
A|-55555555-55555555-11111111/7777-7-7--77777h8-55-5-55h6p4p2-3p2p0/6--\\-|
D|----------55555555-11111111-----------77777h8-55-5-55-------3p2p0/6b~\\-|

Solo
E|-------------------------------------------------------------------|
B|-------------------------------7b-----------------------------12b~-|
G|-------------------------------9b~/12p11----12p11----12p11----14b~-|
D|-------12p9h12p9h12p9b~----5b~-----------11-------11-------11------|
A|-/9-11------------------/7-----------------------------------------|
D|-------------------------------------------------------------------|

E|-------------------------------------------------------------------------|
B|------17-17--18b-17h18h19bp17h19p17b-------------------------------------|
G|-/15b--------------------------------15b---------------------------------|
D|-----------------------------------------------9b--5b-------3h4h5/7h9h10-|
A|-----------------------------------------12b----------3h4h5--------------|
D|-------------------------------------------------------------------------|
PM                                                      ***** ***** ******

E|--------------------------------------------------------------------15~-|
B|-----------------------------------------10h12----10h12----15p13p12-----|
G|-----------------10p9p7h9h10----10h12h13-------13-------13--------------|
D|---------9h10h11-------------11-----------------------------------------|
A|-9h10h11----------------------------------------------------------------|
D|------------------------------------------------------------------------|

E|-13h15p13h15p13h15\14p12h14p12h14p12\10h12p10h12p10-----8---------------|
B|----------------------------------------------------7h9---9p7-----------|
G|--------------------------------------------------------------9p8p7-----|
D|--------------------------------------------------------------------8~\-|
A|------------------------------------------------------------------------|
D|------------------------------------------------------------------------|

Tuning: Drop D (DADGBE)
Intro
E|----------------------------------------2-------------------------------|
B|-------3---------------3------------3------------2----------------------|
G|-----------2---------------2------2---2------2--------------------------|
D|---4-----------2---4-----------2-----------0---0---------7-------5------|
A|-2---2---0---0---2---2---0---0-----------------------5-------3-----33h5-|
D|-------

Fluent Transcendence Tabs by Washya

 -----------------------------------------------------------------------------
                      Fluent Transcendence - Washya
-----------------------------------------------------------------------------
Tuning: Drop C (FADCGC)
Intro
F|---------------------------------------------------------------|
A|---------------------------------------------------------------|
D|---------------------------------------------------------------|
C|------7-----5-----3-------------6------8--8--8h10p8p6-----10\\-|
G|------5-----3-----1-1111/3333h4-4------6--6--6h10p8p6-----8-\\-|
C|-0000-5-55553-33331-------------4-4444/6666666--------88888-\\-|x8
PM ****   ****  ****  ***********   ****  ** **         **** 

Part 2
D|------------------------------------------13----15/17b-|
A|------------------------------12/15p14h15----15----17b-|
F|----9p7h9h10p9/11----11h13p11--------------------------|
C|-/9---------------12-----------------------------------|
G|-------------------------------------------------------|
C|-------------------------------------------------------|x2

Verses
D|----------------------------------------------------|
A|----------------------------------------------------|
F|--------------7---------7---------3-----------------|
C|----4h6---------3h5-------3h5-7-----7-6----5-1111-0-|
G|--------7-----------------------5----------3-1111-0-|
C|-00-------000-------000-----------------3333-1111-0-|
PM **       ***       ***                 ***  

Chorus
D|-------------------------------------------------------------------------|
A|-------------------------------------------------------------------------|
F|----------------------------------------------55555----------------------|
C|------10---7-9-9p6---9---9/12----121212\9---9-55555-5555\33333---------2-|
G|------8----5-7-----7---7------11p101010\7---9-33333-3333\11111-----1h2-0-|
C|-888888--885-7-------------------101010\77777-------3333\11111-1h3-----0-|
PM *****   **                              ***                   *** ***

Solo
D|----13----13----13----17b~~~~-17p14----14h17p14-------------------15-|
A|-12----12----12----13---------------15----------15p13p12----12h14----|
F|---------------------------------------------------------14----------|
C|---------------------------------------------------------------------|
G|---------------------------------------------------------------------|
C|---------------------------------------------------------------------|

D|-15h18p15h18p15h18p15----15-------15p14p12-12h14p12\10h12p10h12p10-|
A|----------------------16----16h17----------------------------------|
F|-------------------------------------------------------------------|
C|-------------------------------------------------------------------|
G|-------------------------------------------------------------------|
C|-------------------------------------------------------------------|

D|----------------------------------------12p9h12p9----9h12p9h12p9----|
A|-12------12------12------8p7------9p8p7-----------10-------------10-|
F|----11p9----11p9----11p9-----10p7-----------------------------------|
C|--------------------------------------------------------------------|
G|--------------------------------------------------------------------|
C|--------------------------------------------------------------------|

D|-9h12p9h12p9-------11h14p11h14p11----11h14p11h14p11-------13h16p13-|
A|-------------10/12----------------12----------------12/14----------|
F|-------------------------------------------------------------------|
C|-------------------------------------------------------------------|
G|-------------------------------------------------------------------|
C|-------------------------------------------------------------------|

D|-16p13h16p13----13p16p13h16-------15h18p15h18p15----15h18p15h18p15-|
A|-------------14-------------14/16----------------16----------------|
F|-------------------------------------------

Flawed Reasoning Tabs by Washya

 -------------------------------------------------------------------------------
                         Flawed Reasoning - Washya
-------------------------------------------------------------------------------
Tuning: Drop D (DADGBE)
Intro (lost of distortion) 
E|----------------|   |--------------12b~-|
B|----------------|   |--------------12b~-|
G|-4444-----223-4-|   |-7b-/9b--/12b------|
D|-4444-2h4-222-4-|   |-9b-/11b-/14b------|
A|-2222-2h4-000-2-|   |-------------------|
D|------2h4-------|x5 |-------------------|

Verses
E|----------------|
B|----------------|
G|-44444-444-4----|
D|-44444-444-4-44-|
A|-22222-222-2-44-|
D|-------------44-|

Chorus
E|------------------------------5-------------|
B|--------------------------------5-----------|
G|-2h444---------8888-888-6\4h6-----4h666-----|
D|-2h444-44-4-66-8888-888-6\4h6-----4h666-x-4-|
A|-2h222-44-4-66-6666-666-6\4-4-----4-444-x-4-|
D|-------44-4-66--------------------------x-4-|

Lead
E|-------------------------------------|
B|----13----13-12h14p12----12----------|
G|-12----12-------------14----/10-10b~-|
D|-------------------------------------|
A|-------------------------------------|
D|-------------------------------------|x2

Marni Marni Martini Tabs by Washya

 -------------------------------------------------------------------------------
                        Marni Marni Martini - Washya
-------------------------------------------------------------------------------
Tuning: Drop D (EBGDAD)
Intro
E|--------------------|
B|--------------------|
G|--------------------|
D|---------------10\9-|
A|-5555-3333-555-8-\7-|
D|-5555-3333-555------|x4

Verses
E|-----------------|     |---------------------|
B|-----------------|     |---------------------|
G|-----------------|     |-----------------9\\-|
D|-----------------|     |-----------------9\\-|
A|-66663333555/8\6-|     |-0-3-5-6-5-3-0-1-7\\-|
D|-66663333555/8\6-|x14  |-0-3-5-6-5-3-0-1-----|
PM ***********             * * * * * * * * 

Chorus
E|-----------------------------------------------------------------------|
B|-----------------------------------------------------------------------|
G|-----------------------------------------------------------------------|
D|------------------------------------99-9-99-9-99-9-99-9\55-5-55-5-55-5-|
A|-55-5-55-5-55-5/88-8-88-8-88-8-88-8-77-7-77-7-77-7-77-7\33-3-33-3-33-3-|
D|-55-5-55-5-55-5/88-8-88-8-88-8-88-8------------------------------------|

E|-----------------------------------|
B|-----------------------------------|
G|-----------------------------------|
D|-----------------------------------|
A|-1-11-33-3-33-3-33-3-33-3-0-00-000-|
D|-1-11-33-3-33-3-33-3-33-3-0-00-000-|

Solo
E|---------------------------------------------------------------------10~-|
B|--------------------------------------------------------8p7----8p7h8-----|
G|---------------------------------------------7---7h8h10-----10-----------|
D|-------------------------------7-5---7-5-7-8---8-------------------------|
A|-----3-5-3---5-3-5-3-5/7-5-7h8-----7-------------------------------------|
D|-3-6-------6-------------------------------------------------------------|
PM * * * * * * * * * 

E|-10h12p10h12p10h13p10h13p10h13p10h13p12p10h13p12p10-------------------|
B|----------------------------------------------------13p12p10----13p12-|
G|-------------------------------------------------------------12-------|
D|----------------------------------------------------------------------|
A|----------------------------------------------------------------------|
D|----------------------------------------------------------------------|

E|-10----10----10----12p10h13p10h12-----10h12-----10h12-----17--17--17--|
B|----13----12----13----------------14b-------14b-------14b-15b-15b-15b-|
G|----------------------------------------------------------------------|
D|----------------------------------------------------------------------|
A|----------------------------------------------------------------------|
D|----------------------------------------------------------------------|

Tie The Rope Around Your Neck Tabs by Washya

 -------------------------------------------------------------------------------
                       Tie The Rope Around Your Neck - Washya
-------------------------------------------------------------------------------
Tuning: D Standard (DAFCGD)
Intro
D|--------------|   |----------------------|   |--------------|
A|--------------|   |----------------------|   |--------------|
F|-7777-777-7\\-|   |-10101010-101010-10\\-|   |--------------|
C|-7777-777-7\\-|   |-10101010-101010-10\\-|   |-5555-555-8\\-|
G|-5555-555-5\\-|   |-8-8-8-8--8-8-8--8-\\-|   |-5555-555-8\\-|
D|--------------|x3 |----------------------|x3 |-3333-333-6\\-|x1

Verses
D|-----------------------------------------------------------|
A|-----------------------------------------------------------|
F|-----7-----77--777--------5----5-5-55-------3-----3-33-3---|
C|-----7-----77--777--------5----5-5-55-------3-----3-33-3-2-|
G|-555-5-5-5-55-5555\333-3-33-33-3-3-33\111-1-1-111-1-11-1-2-|
D|-555-5-5-5-55-5555\333-3-33-33-3-3-33\111-1-1-111-1-11-1-0-| 
PM ***   * *    *    *** * *  **        *** *   ***        

Chorus
D|----------------------------------------------------------------------|
A|----------------------------------------------------------------------|
F|---------------------------------10101010101010101010\8888888888------|
C|-7777777777/10101010101010101010-10101010101010101010\8888888888-88\\-|
G|-7777777777/10101010101010101010-8-8-8-8-8-8-8-8-8-8-\6666666666-88\\-|
C|-5555555555/8-8-8-8-8-8-8-8-8-8----------------------------------66\\-|

Divergence Tabs by Washya

 -----------------------------------------------------------------------------
                                  Divergence - Washya
-----------------------------------------------------------------------------
Tuning: Drop D (EBGDAD)
Intro
E|------------------------------------------|
B|------------------------------------------|
G|------------------------------------------|
D|----------------------------3p2p0---------|
A|----0h3h5----0h3h5----0h3h5-------3p2p0-2-|
D|-00-------00-------00-------------------2-|x3
PM **       **       **      

Verses
E|------------------------------------------------|
B|------------------------------------------------|
G|------------------------------------------------|
D|------------------------------------------------|
A|-----6\5/6-----6\5/6-----6\5/6------6\5\3-3\2\1-|
D|-000-6\5/6-000-6\5/6-000-6\5/6--000-6\5\3-3\2\1-|
PM ***       ***       ***        *** 

Chorus
E|-----------------------------------------------------------|
B|-----------------------------------------------------------|
G|-----------------------------------------------------------|
D|----------3/5-------------------------------7/10-----------|
A|-00000000-1/3-6-5-00000000-5-6-5-3-00000000-5/8--7-8-7-5-3-|
D|-00000000-----6-5-00000000-5-6-5-3-00000000------7-8-7-5-3-|
PM ********         ********         ********