Tag: water

Head Above Water piano chords by Avril Lavigne

Intro Dm Bb F


Verse 1:
           Dm
I've gotta keep the
       Bb        F
calm before the storm.
  Dm
I don't want less.
  Bb         F
I don't want more.
     Dm
Must bar the windows
Bb      F
and the doors
   Dm
to keep me safe.
   Bb      F
To keep me warm


Verse 2:
        Dm
Yeah my life is what
    Bb       F
i'm fighting for
      Dm
Can't part sea
      Bb        F
can't reach the shore
       Dm
And my voice becomes
    Bb      F
the driving force
        Dm
I won't let this
        Bb  F
pull me overboard


Chorus 1:
            Dm
God keep my head
      Bb
above water
             F
Don't let me drown
        C
It gets harder
              Dm
I'll meet you there
       Bb
at the altar
     F/A
As i fall down
      C
to my knees
             Dm
Don't let me drown
      Bb
drown drown
Don't let me
F
don't let me
             C
don't let me drown


Verse 3:
   Dm
So pull me up from
Bb     F
down below Cause
    Dm
i'm underneath the
Bb   F        Dm
undertow Come dry
           Bb
me off and hold
   F       Dm
me close I need
          Bb       F
you now i need you most


Chorus 2:
            Dm
God keep my head
      Bb
above water
             F
Don't let me drown
        C
It gets harder
              Dm
I'll meet you there
       Bb
at the altar
     F/A
As i fall down
      C
to my knees
             Dm
Don't let me drown
      Bb
drown drown
Don't let me
F
don't let me
             C
don't let me drown
             Dm
Don't let me drown
      Bb
drown drown
I keep my head
      F/A
above water
      C
above water


Bridge:
    Bb  C     Dm
And I I can't see in
     F
the stormy weather
Bb       F/A
I  can't seem to keep
   F
it all together
    Bb
And I, I can't
C        Dm
swim the ocean
     F
like this forever
    Bb      C(hold)
And I can't breath


Chorus 3:
            Dm
God keep my head
above water
          C
I lose my breath
At the bottom
            Dm
Come rescue me
I'll be waiting
        C
I'm too young
to fall asleep


Chorus 4:
            Dm
God keep my head
      Bb
above water
             F
Don't let me drown
        C
It gets harder
              Dm
I'll meet you there
       Bb
at the altar
     F/A
As i fall down
      C
to my knees
             F/A
Don't let me drown
      Bb
drown drown
          Dm
Don't let drown
      C/E
drown drown
             F/A
Don't let me drown
      Bb
drown drown
I keep my head
      Dm
above water
      C
above water

Moon On The Water chords – Beck Vsion 1

 Moon On The Water
Beck
As interpreted by: Daniel P. Clark (6ftdan @ Gmail/Twitter)

(Same key as the male vocalist.  Female vocalist shifts key a half step down.)

Intro:


E|-----0-----------5-----------------7-------------|
B|-------0-----------5-----------4h5-----------2-4-|
G|---------3-----------8-------6-------------4-----|
D|---2-----------------------6-------------4-------|
A|---------------7---------4-------------2---------|
E|-0-----------5-----------------------------------|

             (extra for instrumental parts only)
E|-----0-----|----0--------0---------------|
B|-------0---|---0-0---------0-------------|
G|---------2-|--2---2----------2-----------|
D|---2-------|-2-----2---2-----------------|
A|-0---------|---------0-------------------|
E|-----------|-----------------------------|


 E A2    
Full moon sways
 C#m B A2  
Gently in the night of one fine day
 E A2  
On my way
 C#m B A2   
Looking for a moment with my dear

 E A2    
Full moon waves
 C#m B A2   
Slowly on the surface of the lake
 E A2    
You are there
 C#m B A2    
Smiling in my arms for all those years

        C#m   
What a fool!
   A2 E        
I don't know about tomorrow
 B F#m 
What it's like to be
 A2  
Ah~

       C#m  
I was sure
           A2 E  
'Couldn't let myself to go
 B F#m  
Even though I feel
 A2      
The end

 E A2      
Oh my fair...
 C#m B A2    
Floating like a bird that's in her wings
 E A2    
You are there
 C#m B A2    
Smiling in my arms for all those years

        C#m   
What a fool!
   A2 E        
I don't know about tomorrow
 B F#m 
What it's like to be
 A2  
Ah~

       C#m  
I was sure
           A2 E  
'Couldn't let myself to go
 B F#m  
Even though I feel
 A2      
The end

(Instrumental: Intro x2)

        C#m   
What a fool!
   A2 E        
I don't know about tomorrow
 B F#m 
What it's like to be
 A2  
Ah~

       C#m  
I was sure
           A2 E  
'Couldn't let myself to go
 B F#m  
Even though I feel
 A2      
The end

 E A2    
Full moon sways
 C#m B A2  
Gently in the night of one fine day
 E A2    
You are there
 C#m B A2    
Smiling in my arms for all those years

Water chords – Jack Garratt

 Thanks for checking out my first ever chord submission! Such a pretty song the way Jack plays it!
Jack Garratt – Water Chords

Intro:
 Am C Am C Am C - G - F G - F  [ Am - G - F - Em ]

Verse:
 Am C Am C 
Water water wash
 Am C G  -  F   
  Water wash over me
    G  -  F Am - G - F - Em 
Cool me down, Cool me down!
 Am C Am C 
Water water leave
 Am C G   -    F 
  Water leave through the valley
   G    -     F Am - G - F - Em    
Lead you all down, wear me down!

Chorus:
                     Am C 
Drown me in the water
                     Am C         
Drown me in the sea
                     Am C 
Lose me in the dark     Drag me to the deep
 G Am - G - F - Em 
Let your water wash over me

[Intro Chords]

 Am C Am C 
Water   water rise
 Am C G F   
Water rise up and roll 
 G      -      F Am  -  G  -  F  -  Em 
through the islands, Roll down the streets
          Am - C Am C 
It’s only voice, strongly voice
 Am C G F  
Find the woman and dance through the moon, like
 Am   -  G  -  F  -  Em 
Leave me the rain

Repeat Chorus:

 Am C Am C Am C - G - F G - F  [ Am - G - F - Em ]
Wash    Wash      Wash

Repeat Chorus Until End:

Deep Water Horizon chords – Epica

 Em Bm 
We have to wait
       G D 
For a dying day, full of black decay
 Em Bm 
We'll find a way
      G D Am 
To become aware, breathing tainted air
               G 
We change the lanes in every second of our lives
 Em Bm 
Lost in our minds
                 G D 
We'll taste the water's brine, all for the silver shine 
 Em Bm 
Can't stay the same
                 G D Am                         
Should end this bloody game, bare in the venom rain
             G B7 
To fuel the greed to feed the hungered has its price
              Bbm Ebm 
There's the feeling once again
                F Gb 
The day where black and white began
           Bbm Ebm Ab 
Await the ending of our everlasting violence
                Bbm Ebm 
We've all been healing from the pain
              F Gb 
From all the misery and constraint

We're inhaling fumes again 
               Ab 
So don't deny it
 Em Bm 
Lies will unwind
         G D 
The verity you'll find, upon the moor resigned 
 Em Bm 
Primary gain
              G D                        
Comes with a thousand slain, all for the greater vain
              G B7 
Without the horror causing hazard we'll survive 
               Bbm Ebm 
There's the feeling once again
                 F Gb 
The day where black and white began
           Bbm Ebm Ab 
Await the ending of our everlasting violence
                Bbm Ebm 
We've all been healing from the pain
                
              F Gb 
From all the misery and constraint

We're inhaling fumes again 
                Ab 
So don't deny it

//Please submit your corrections and ideas ;)

The Street Is Full Of Water chords – Rekevin

 Rekevin – The Street Is Full Of Water
=====================================
Note: it's hard to make the guitar chords sound similar to the piano in the original
piece, so you might find yourself playing E5 and C5 in the chorus to hide the thirds.

Play Em on the A string.
=====================================

[Intro]

 Em G F Dm 


[Verse]

 Em G 
Again I'm here in this enchanted kingdom
                               F 
I'll fetch up there before I sing my swan song
                          Dm 
Say why couldn't I visit it many a time
                                    Em 
Every night and day, every day and night
                            G 
And again some odd things happen
                            F 
There's no one whom I can question, 'Oh, why
                                                 Dm 
Is there a sea in the street where it can't be?
                                                     Em 
Should I swim across it or should I find an alternative?'


[Chorus] (2x)

 Em C 
The street is full of water
                           Em 
Up and down my tire is floating
                                  C 
My friends are behind and I'm deserted
                               Em 
My sea route doesn't become shorter


[Solo]

      Em G 
e|------12------12----10--------12------12---10--------------------------|
B|---10------10----------12--10------10---------12-----------------------|
G|-----------------------------------------------------------------------|
D|-----------------------------------------------------------------------|
A|-----------------------------------------------------------------------|
E|-----------------------------------------------------------------------|

      F Dm 
e|------12------12----10--------13------13---13-15-----15s17-------------|
B|---10------10----------12--12------12----------------------------------|
G|-----------------------------------------------------------------------|
D|-----------------------------------------------------------------------|
A|-----------------------------------------------------------------------|
E|-----------------------------------------------------------------------|


[Verse]
 Em 
You're not in joking mood,
          G 
Don't be afraid to get wet
                          F 
In my dream you can do anything, anything
                                                  Dm 
I made my choice indeed and gonna fight all night
                                Em 
All I need is to swim straight
                                            G 
I'm enjoying myself, please, don't try to wake me up
                                         F 
It's not funny, you have already got a swap

Because you missed your work today by sleeping
         Dm Em 
So now relax and cross this flooded fucking street with me


[Chorus]
 Em C 
The street is full of water
                             Em 
Up and down my tire is floating
                                  C 
My friends are behind and I'm deserted
                                    Em 
My sea route doesn't become shorter

                         C 
The street is full of water
                         Em 
The street is full of water
                      C 
My friends are behind
                         Em 
The street is full of water


[Solo]
(as above)


[Intermezzo]
(from Hitchcock's movie "North by 

My Beloved Water Tabs by Rekevin

 Rekevin - My Beloved Water

[Intro]

    Dm         Bb          Dm         Bb
e|------------------------------------------------------------|
B|-------6-5---------6p5-------6--5-6-5-----------------------|
G|--7--7-----5-5h7-------5-5h7----------5---7-----------------|
D|--7-------------------------------------7-------------------|
A|--5---------------------------------------------------------|
E|------------------------------------------------------------|

(second time play some variations hereof, the guitar sound differs from the original anyway)


[Verse]

     Dm
Sand eats my feet
    Bb
And my thoughts
     Dm
This date with the sea
        Bb
Is the last


[Chorus]

Gm
Hurry up, I'm going away now
Bb
We have so much to discuss
Gm
Kiss my hands and I'll kiss your eyes
Bb              A       
This date gonna be the last


[Verse]

Dm
In your big eyes
  Bb
I am too small
  Dm
A little girl
                Bb
Who wants some love

    Dm
But I'll become
   Bb
As great as you are
            Dm
And we will be
             Bb
Forever and more


[Chorus]

Gm
Hurry up, I'm going away now
Bb
We have so much to discuss
     Gm
Kiss my hands and I'll kiss your eyes
Bb              A
This date gonna be the last 


[Bridge]

Dm Bb (4x)


[Solo]

e|---------------------------------------------------------------------|
B|----------------------13----------15----13----10----8--5-3s5s3-------|
G|------9s10-9-7-9s10------14------------------------------------------|
D|----7-----------------------15--15----12----10----8----5-3s5s3-------|
A|--8------------------------------------------------------------------|
E|---------------------------------------------------------------------|


e|---------------------------------------------------------------------|
B|---------------------------------------------------------------------|
G|--------------------10----------10-12--12s14-------------------------|
D|--------10----10h12-10----10h12--------------------------------------|
A|--10h12----12--------------------------------------------------------|
E|---------------------------------------------------------------------|


e|----------------------------------------------------------------------|
B|----------------------------------------------------------------------|
G|--14-14-14-12-10----10h12--12b14----10-10-10-----------------------10-|
D|--15----15-------12-----------------10-10-10-12--------10----10h12-10-|
A|-------------------------------------------------10h12----12----------|
E|----------------------------------------------------------------------|


e|-------------------------------------------------------------------------|
B|------------------------------------10-----------------------------------|
G|-----------------10-12b14b12-10---10----12-10-12-10----------10-12-12s14-|
D|--12p10h12p10h12------------------------12----12----12-10-12-------------|
A|-------------------------------------------------------------------------|
E|-------------------------------------------------------------------------|

Whiskey In My Water chords – Tyler Farr

 GREAT new song!  so it might not be perfect but it sounds 
right to me when I play it. Enjoy!

Intro:  |( Cadd9 ) |( D ) | x 2

( Cadd9 )In my truck, flyin' down a dirt road, ( D )pickin' you up, feelin' kinda crazy
I ( Cadd9 )think I'm in love, 'cause I know my baby ( D )
( Cadd9 )She slaps my knee, says, "Boy, why you smilin'?" ( D )doin' my best, so hard to hide it
I ( Cadd9 )know what's up, so I just shoot her a ( D )wink

(Chorus)
'Cause when the ( Cadd9 )sun goes down, it'll ( G )get a little hotter
( D )Make an ole boy's heart ( Em )beat a little ( D )harder
I ( Cadd9 )know I can't lose, 'cause it's ( G )goin' down smoother ( D )now, baby
( Cadd9 )One ain't enough, ma'am, ( G )may I have another?
( D )Sittin' 'round a fire, gettin' ( Em )drunk on each ( D )other
( Cadd9 )Everyday I pray, I thank God, I got her, she's the moon in my shine
The ( D )whiskey in my water ( Cadd9 ) ( D )

When we're ( Cadd9 )passed Flint Bridge, we'll break out the bottle, ( D )drop it down 
low, crank up the throttle
I'm ( Cadd9 )good to go, 'cause I got you to( D )night, baby

(Chorus)
'Cause when the ( Cadd9 )sun goes down, it'll ( G )get a little hotter
( D )Make an ole boy's heart ( Em )beat a little ( D )harder
I ( Cadd9 )know I can't lose, 'cause it's ( G )goin' down smoother ( D )now, baby
( Cadd9 )One ain't enough, ma'am, ( G )may I have another?
( D )Sittin' 'round a fire, gettin' ( Em )drunk on each ( D )other
( Cadd9 )Everyday I pray, I thank God, I got her, she's the moon in my shine
The ( D )whiskey in my water ( Cadd9 )( G )|( D )

(Bridge)
Sittin' on this ( Em )hill with her, lookin' in them ( D )baby blues
Wishin' that the ( Cadd9 )sky would change, I've been thinkin' 'bout it all damn 
day, I can hardly wait

(Chorus)
'Cause when the ( Cadd9 )sun goes down, it'll ( G )get a little hotter
( D )Make an ole boy's heart ( Em )beat a little ( D )harder
I ( Cadd9 )know I can't lose, 'cause it's ( G )goin' down smoother ( D )now, baby
( Cadd9 )One ain't enough, ma'am, ( G )may I have another?
( D )Sittin' 'round a fire, gettin' ( Em )drunk on each ( D )other
( Cadd9 )Everyday I pray, I thank God, I got her, she's the moon in my shine
The ( D )whiskey in my water ( Cadd9 ) ( D )

Outro
The whiskey in my water ( Cadd9 ) ( D )
The whiskey in my water, ( Cadd9 ) yea ( D ) yea yeah ( Cadd9 ) ( D ) 

Ice Water Tabs by Agua De Annique

 [Verse]

    D#m
I shield you from this life
      E               D#m
Your heart is kept on ice
   D#m
I file you where I need
     E             D#m    
And keep you from the heat


[Chorus]

F#               D#m
Running, running away


[Verse]

    D#m
You hold me in contempt
   E              D#m
Forever will I depend
    D#m
You file me where you need
     E                    D#m
But never kept me from the heat


[Chorus]

F#               D#m
Falling, falling away
F#               D#m
Falling, falling away


[Verse]

      D#m
It's always cold in hell
        E            D#m
I have felt it I can tell
     D#m
They file you where they need
        E                D#m
In ice water there is no heat


[Chorus]

F#               D#m
Burning, burning away
F#               D#m
Burning, burning away


[Solo]

    E         G#m         E         G#m        F#
e|---------------------------------------------------------------------|
B|---------------------------------------------------------------------|
G|---------------------------------------------------------------------| 2x
D|----9-8--------13-11-9----9-8--------13-11-9---11-9-8---11-9-8-------|
A|--7-----9-9-11----------7-----9-9-11---------9--------9--------------|
E|---------------------------------------------------------------------|

  (second time, the lead guitar kicks in)

e|--6-7-6-7-6--6-7-6-7-6-----------------------------------------------|
B|------------------------7-7s9----------------------------------------|
G|--------------------------------8s9-8---8-6--------------------------|
D|--------------------------------------------9-8----------------------|
A|------------------------------------------------9--------------------|
E|---------------------------------------------------------------------|


[Chorus]

F#               D#m
Burning, burning away
F#               D#m
Burning, burning away


[Outro]

e|------------------------------------------------------------------------|
B|------------------------------------------------------------------------|
G|--11s13--11--10--8------(4x)--------------------------------------------|
D|------------------------------------------------------------------------|
A|------------------------------------------------------------------------|
E|------------------------------------------------------------------------|

In The Water Tabs by Anadel

  Cody Martin

Standard Tuning-Capo 2

Intro-2x

E|-----------------------------------------------------------------------------|
B|---0--------0---------0---------0---------0--------0--------0--------0-------|
G|--------2---------2--------2---------0--------0---------0--------0--------2--|
D|-----2----2---2----2---2----2---2----2---2----2---2---2---2---2---2----------|
A|-0---------------------------------------------------------------------------|
E|-----------------------------------------------------------------------------|

Verse- You hold your every breath...

     Aadd2

E|-----------------------------------------------------------------------------------|
B|---0---------0-------0--------0---------0-------0--------0---------0---------------|
G|--------2--------2--------2--------2--------2--------2--------2---------0----------|
D|-----2----2---2---2---2---2---2----2---2---2---2---2---2----2---2------------------|
A|-0---------------------------------------------------------------------------------|
E|-----------------------------------------------------------------------------------|

    Cmaj7

E|---------------------------------------------------------0------------------------|
B|---0--------0--------0--------0--------0---------0-------0--------0---------------|
G|--------0--------0-------0---------0--------0------------------0--------2---------|
D|-----2----2---2---2--2---2----2--------2----2---2---2---2---2---2-----------------|
A|-3-------------------------------------3------------------------------------------|
E|----------------------------------------------------------------------------------|

Chorus- Against the tide we struggle

E|--------------------------------------------------------------------------------|
B|---0---------0-------0-------0--------0---------0-------0--------0--------------|
G|--------0--------0--------0-------0--------0--------0--------0--------0---------|
D|-----2----2---2---2---2---2---2-------2----2---2---2---2---2---2----------------|
A|---------------------------------------3----------------------------------------|
E|-0------------------------------------------------------------------------------|

Bridge:

    Gmaj7

E|-----------------------------------------------------------------------------------|
B|---0-------0---------0--------0-------0--------0-------0---------0-----------------|
G|--------0--------0--------0-------0--------0--------0--------0--------0------------|
D|-----4---4---4----4---4---4---4-------4----4---4---4---4---4---4---4---------------|
A|-5------------------------------------5--------------------------------------------|
E|-----------------------------------------------------------------------------------|

Cmaj7

E|---------------------------------------------------------0------------------------|
B|---0--------0--------0--------0--------0---------0-------0--------0---------------|
G|--------0--------0-------0---------0--------0------------------0--------0---------|
D|-----2----2---2---2--2---2----2--------2----2---2---2---2---2---2-----------------|
A|-3-------------------------------------3------------------------------------------|
E|----------------------------------------------------------------------------------|

No Power In The Water chords – The Purple Hulls

 http://thepurplehulls.com/

CAPO 3


CHORUS:

             G D                
There's no power in the water 

            C G Em D 
Be it the mighty Mississippi or the Jordan when it floods

             G D                
There's no power in the water

           C D G 
To take away our sin the power is in the blood



SHORT INTERLUDE:  

 G D C D G 



VERSE 1:

  G D G 
God sent John the Baptist, to preach and make a way

          C G C 
For the Savior who would save the whole world through

       G D G 
John baptized with water, said One more powerful would come

                C D G 
But there was something even John the Baptist knew



CHORUS:

             G D                
There's no power in the water 

            C G Em D 
Be it the mighty Mississippi or the Jordan when it floods

             G D                
There's no power in the water

           C D G 
To take away our sin the power is in the blood



INTERLUDE:

 G D C G Em D G D C D G 



VERSE 2:

         G D G 
At the pool of Bethesda, Jesus met a man

          C G C 
With an illness forty years could not dispel

         G D G 
He was waiting by the water to be healed when Jesus said

      C D G 
Take up your bed and walk, you've been made well



CHORUS:

             G D                
There's no power in the water 

            C G Em D 
Be it the mighty Mississippi or the Jordan when it floods

             G D                
There's no power in the water

             C D G 
To make us new again, the power is in the blood



INTERLUDE:

 G D C G Em D G D C D G 



FINAL CHORUS:

             A E                      
There's no power in the water 

            D A F#m E 
Be it the mighty Mississippi or the Jordan when it floods

             A E                
There's no power in the water

           D E A 
To take away our sin, the power is in the blood

             D E D A 
To make us new again, the power is in the bloooooooooooooooooooood

Gimme Some Water chords – Eddie Money

 Eddie Money
Gimme Some Water
Standard Tuning
Chords


 A G D A  (x2)

-- Verse 1 --
 A G D A 
Mama never understood what it's like for a losin man

 A G D A 
  when her number one son goes bad playing cards with the devils hand   

 A G D A 
Boy  Daddy got real sick so quick four walls never understand

 A G D A 
  I was the one who got good with the gun  took the money from the rich mans land


-- Chorus --
            A G D A      
Gimme some water   cuz I shot a man on the mexican border

 A G D             
  cool cool water

            A G D A 
gimme some water

                 A G D A 
I need a little water


-- Verse 2 --
 A G D A 
Jimmy grew up so fast then he met me at the pass one day

              A G D A 
  Said you a wanted man  take your brothers hand  I'll be running with you anyway

    A G D A 
so we rode late into the night lightin fires on the desert sand

 A G D A 
  till one day the posse caught us cause the sherrif always gets his man


-- Chorus --
            A G D A      
Gimme some water   cuz I killed man on the mexican border

A      ( beat only)                                    
  cool cool water     I need a little water



-- Turnaround --
    D G D A 
Oh geez   if I could just get loose my hands

     D G D C 
I'd run   just as fast as my legs can

     D G D A 
but lord  I got no room to run

 D G D A 
shouldn't have done what I  did with that there gun


-- Solo --
 D G D A   (x4)
 I hate it (3rd round)


              A G D A 
Gimme some water    cause I killed a man on the mexican border

A           G      D (2 hard then stop)
  cool cool water 


-- Verse 3 --
           A G D A 
can't you  see that long white rope hanging from the hangmans tree

        A G D A 
take a restless horse time my hands of course  tell my mother that I'm finally free

        A G D A 
let me die like a man  no one understands  let me pray let a poor man pray

            A A                 (muted)
smack that horse in the ass  with my last dying gasp  my brother could hear me say


-- Chorus --
            A G D A      
Gimme some water   cuz I shot a man on the mexican border

 A G D A       
  cool cool water     gimme some water

            A G D A      
Gimme some water   cuz I shot a man on the mexican border

 A G D A       
  cool cool water     gimme some water

            A G D A      
Gimme some water   cuz I shot a man on the mexican 

1990 Was A Long Year And We Are All Out Of Hot Water Now Tabs by Jordaan Mason And The Horse Museum

 Capo 2nd fret


E||------------------3-|--------------------3-|
B||---------1----------|---------1------------|
G||----0--------0------|----0----------0------|
D||--3---3----3---3----|--3---3------3----3---|
A||--------------------|----------------------|
E||--------------------|----------------------|

E||------------------3-|--------------------3-|
B||---------1----------|---------1------------|
G||----0---------0-----|----0-----------0-----|
D||--2---2-----2---2---|--2---2-------2---2---|
A||--------------------|----------------------|
E||--------------------|----------------------|

There are slight variations in the fingerpicking as the song progresses but this is the main motif

In The Water chords – Anadel

 I fell in love with this song after playing Telltale's The Walking Dead Game Season Two. 
Perfect soundtrack for Clementine.
Feel free to play it as pretty as you want, it's picked in the original song. These are 
just the basic chords.
Not sure if all are correct though, since I don't have much to go off.


 B 
You hold your every breath but life is for the living
 D 
In the water
 B 
You feel that you should run but where are you to hide
 D 
In the water


 F#m Bm D 
Against the tide we struggle with the skin we're in, the skin we're in
 F#m 
Against the tide we struggle
 D F#m 
To keep our heads above the deep
                          D 
And our hearts above the lie


 E 
You vow your life and blood but this is not our home
 D 
In the water
 E 
Our hope here's never found just try and keep your way
 D 
In the water


 F#m Bm D 
Against the tide we struggle with the skin we're in, the skin we're in
 F#m 
Against the tide we struggle
 D F#m 
To keep our heads above the deep
                          D 
And our hearts above the lie


 E 
Who we are today could never make amends
            D 
For what we've done, tainted blood
 E 
His eyes are full of love
 D 
Forgive them

Release them


 F#m Bm D 
Against the tide we struggle with the skin we're in, the skin we're in
 F#m 
Against the tide we struggle
 D F#m 
To keep our heads above the deep
                          D 
And our hearts above the lie


End on: F#

http://anadel.bandcamp.com

Like Water chords – Ladi6

 D
One morning I woke up, looked over and
                      C
Kissed your shoulder
              Am
It felt so right
 D
You didn’t wake
         C
I could see it in your face
              F C
You knew my intention right

 Dm F
Sometimes I swear our connection was made amongst the stars
                   C
And makes me feel alive
 Dm C
Our love is powerful, so powerful

Moving mountains in the night
             Bb Am
Oh, and I know sometimes this is hard for us
    Gm F D
I know we sacrifice and get scarred, and cut, oh

 D
I know it, I feel us moving
 D
Let’s never lose us this, this movement
 C Dm
Momentum is building, our union is fluid like water
                                   Am C
Clean, clear, crisp, we got a love just like this, water

Our love is like water

 F F C C Dm C
Persecuted, and left - left out to live upon the edge like
 C
How they left you, right? That’s how they left you right?
 Dm
I picked up the pieces
             Dm F
They left you in broken pieces on the floor
                     C
Glowing in holy light

          Am
And even though I know they love you very much
                G
They don’t love you more than me
                  C
This you can trust, oh

 D
I know it, I feel us moving
 D
Let’s never lose us this, this movement
 C Dm
Momentum is building, our union is fluid like water
                                   Am C
Clean, clear, crisp, we got a love just like this, water
 C Dm
Our love is like water

 Dm C Dm
Like water, oh oh
    F C
I know it, I feel it, oh


 D
I know it, I feel us moving
 D
Let’s never lose us this, this movement
 C Dm
Momentum is building, our union is fluid like water
                                   Am C
Clean, clear, crisp, we got a love just like this, water

Our love is like water


 D
I know it, I feel us moving
 D
Let’s never lose us this, this movement
 C Dm
Momentum is building, our union is fluid like water
                                   Am C
Clean, clear, crisp, we got a love just like this, water

Our love is like water

Fire In The Water chords – Feist

 Fire in the water
First
Enjoy :) -mzoeli

 F Am F Am F G Em Bb (or  Dm )

 F Am  
Love's the sweetest feeling
 F Am 
Openly believing
 F G 
No matter what we find there
 Em Bb (Dm)    
Come back in through the eyes there

Sole and born creation
The lion's in the house
Flowers are up in the air
Crashing against the dark

Ah ahah ah ahahah
Ah ahah ah ahahah
ah ahah ah ahah
ooooooooooh

Fire in the water
Is the body of our love
Nobody should see this
The freeness of the light

Ah ahah ah ahahah
Ah ahah ah ahahah
ah ahah ah ahah ooooooh

 Dm Bb 
Fire in the water
        Dm Bb 
Is the body of our love

Water To The King Tabs by Tyler Gilbert

 -------------------------------------------------------------------------------
                             Water to the King - Tyler Gilbert
-------------------------------------------------------------------------------
Tuning: E standard
www.tylergilbert.ca

Intro - Electric
e|-0----0--0\0---------------------------------------------------------------|
B|-3/5--5--5\3p0--0/0~~------0---0-0-----------------------------------------|
G|----------------2/4~~--0-2-2/4-4-4\2-0-------------------------------------|
D|----------------------2----------------2~~---------------------------------|
A|---------------------------------------------------------------------------|
E|---------------------------------------------------------------------------|

Intro - Acoustic
e|-0-0-0-0-0---0-0-0-0-0---------------0-0-0-0-0-0---------------------------|
B|-1-1-1-1-1---0-0-0-0-0---------------0-0-0-0-0-0---------------------------|
G|-0-0-0-0-0---0-0-0-0-0---0-0-0-0-0---0-0-0-0-0-0---------------------------|
D|-2-2-2-0-0-0-2-2-2-2-2-0-4-4-4-5-4-0-2-2-2-2-2-2---------------------------|
A|-3-3-3-3-3-0-2-2-2-2-2-0-5-5-5-5-5-0-2-2-2-2-2-2---------------------------|
E|-3-3-3-3-3-0-0-0-0-0-0-0-5-5-5-5-5-0-0-0-0-0-0-0---------------------------|

Verse - Acoustic
e|-0-0-0-0-0---0-0-0-0-0---0-0-0-0-0-----------------------------------------|
B|-1-1-1-1-1---1-1-1-1-1---0-0-0-0-0-----------------------------------------|
G|-0-0-0-0-0---2-2-2-2-2---0-0-0-0-0---0-0-0-0-0-0-0-------------------------|
D|-2-2-2-2-2-0-2-2-2-2-2-0-2-2-2-2-2-0-4-4-4-5-4-4-0-------------------------|
A|-3-3-3-3-3-0-0-0-0-0-0-0-2-2-2-2-2-0-5-5-5-5-5-5-0-------------------------|
E|-3-3-3-3-3-0-----------0-0-0-0-0-0-0-5-5-5-5-5-5-0-------------------------|

Solo
e|---------------------------------------------------------------------------|
B|---------------------------------------------------------------------------|
G|-/7~~-5-4-2--/5~~-4-2-0--/2--/4--/5--/7--9~~---------12--------------------|
D|-----------------------------------------------12h14----14~~---------------|
A|---------------------------------------------------------------------------|
E|---------------------------------------------------------------------------|

e|---------------------------------------------------------------------------|
B|-----------------------------------------x15~~-13-12h13p12----1------------|
G|-------12-------------12-14pb-12-14pb~~~-------------------14--------------|
D|-12h14----14~~--12h14------------------------------------------------------|
A|---------------------------------------------------------------------------|
E|---------------------------------------------------------------------------|

e|------------------x15-14-12----12------------------------------------------|
B|----------------------------15----15-13-12----------15---------------------|
G|-14-12-14b-12~~~---------------------------14-12-14b---14pb-12-------------|
D|---------------------------------------------------------------14~~~-------|
A|---------------------------------------------------------------------------|
E|---------------------------------------------------------------------------|

e|------------------------------------------12h15p12----------12h15p12-------|
B|--------------------------------12-15~~~-----------15-12-15----------------|
G|-----------------12-14-14-14-14--------------------------------------------|
D|-/12-14-14-14-14-----------------------------------------------------------|
A|---------------------------------------------------------------------------|
E|---------------------------------------------------------------------------|

e|---------12h15p12---------12h15p12--------12h15p12--------12h15p12---------|
B|-15-12-15---------15-12-15--------15-12-15--------15-12-15--------15-12-15-|
G|---------------------------------------------------------------------------|
D|-----------------------------------------------

Water Not War chords – Superman Is Dead V2

 -------------------------------------------------------------------------------
                             Water Not War - Superman Is Dead
-------------------------------------------------------------------------------
Submitted by: di.182
 di.182@facebook.com

Tuning: Standard

Intro:  D 

[Verse 1]
 D Bb C F 
Above the silent of this burning clouds
 D Bb C F 
Why should I cry If I know I'm gonna fall
 D Bb C F  
I lost my breath when I get into the crowds
        Bb C 
All the drive is so hot

[Verse 2]
           F Bb C 
Until the day keep me out of this storm
           F Bb C 
I see the hope lays under machine gun
                    D Bb C 
And no other wanna try to save my soul
  D Bb C 
try to save my soul

[Chorus:]
 Bb F C D 
Day by the day I'm sailing to the crowds
 Bb F C D 
Pick up the line, taking up into the sound
 Bb F C D 
How many days should I stay out of drying?
        Bb C D 
No one care and I don't mind (anymore)

[Verse 1]
 D Bb C F 
Above the silent of this burning clouds
 D Bb C F 
Why should I cry If I know I'm gonna fall
 D Bb C F  
I lost my breath when I get into the crowds
        Bb C 
All the drive is so hot

[Verse 2]
 F Bb C 
Until the day keep me out of this storm
           F Bb C 
I see the hope lays under machine gun
                    D Bb C 
And no other wanna try to save my soul
  D Bb C 
try to save my soul

[Chorus:]
 Bb F C D 
Day by the day I'm sailing to the crowds
 Bb F C D 
Pick up the line, taking up into the sound
 Bb F C D 
How many days should I stay out of drying?
        Bb C      
No one care and I don't mind 

[*]
 Bb C  
When I'm drowning to the ground,
                         F D 
Going blind losing my sound of getting back
 Bb C D 
Who's gonna dream, instead of war

Intro:  Bb C F D Bb C 

[Chorus:]
 Bb F C D 
Day by the day I'm sailing to the crowds
 Bb F C D 
Pick up the line, taking up into the sound
 Bb F C D 
How many days should I stay out of drying?
         Bb C 
No one care and I don't mind

[Chorus:]
 Bb F C D 
Day by the day I'm sailing to the crowds
 Bb F C D 
Pick up the line, taking up into the sound
 Bb F C D 
How many days should I stay out of drying?
         Bb C Bb 
No one care and I don't mind ... anymore 
           C Bb 
a

Water Not War chords – Superman Is Dead

 WATER NOT WAR
by: Superman is dead
 Sunset di tanah anarki


Intro:   Dm Bb C F Dm Bb C Dm Dm Bb C F 
above the silent of this burning clouds
 Dm Bb C Dm 
why should I cry if I know I'm gonna fall
 Dm Bb C F 
I lost my breath when I get into the crowds
 Bb C 
all the drive is so hot

 F Bb C 
until the day keep me out of this storm
 F Bb C 
I see the hope lays under machine gun
 Dm Bb C 
and no other wanna try to save my soul
 Dm Bb C 
try to save my soul

 Bb F C Dm 
day by the day I'm sailing to the crowds
 Bb F C Dm 
pick up the line, taking up into the sound
 Bb F C Dm 
how many days should I stay out of drying?
 Bb C Dm 
no ones care and I don't mind (anymore)

 Bb C      
when I'm drowning to the ground,
 F Dm 
I'm going blind losing my soul, of getting back
 Bb C Dm 
who's gonna dream, instead of war

Interlude:  Bb F C Dm Bb F C Dm 



more info contact:
facebook: https://www.facebook.com/Rockabilly.bahtiar

---Cheers---