Tag: wilco

Hate It Here chords – Wilco

 There's a fairly good tab on here, but a few of the chords are a little iffy, and they are onlyapplied
to the first verse. Anyway, this is one of my favourite Wilco songs, and I was so happyit was featured
in the recent film, Boyhood. Please add corrections if you feel it's necessary.

P.S. Adim can be replaced with D7 if required.

NO CAPO / STANDARD TUNING

 Adim 
2
1
2
1
0
0

Intro:

 A D C#m D A D 
 I try to stay busy
 C#m D 
 I do the dishes, I mow the lawn
 A Adim  
 I try to keep myself occupied
      Bm A 
Even though I know you're not coming home

 A D 
 I try to keep the house nice and neat
 C#m D  
 I make my bed I change the sheets
 A Adim 
 I even learned how to use the washing machine
     Bm A 
But keeping things clean doesn't change anything

 A D 
 What am I gonna do when I run out of shirts to fold?
 A D 
 What am I gonna do when I run out of lawn to mow?
 A Adim 
 What am I gonna do if you never come home?
          Bm A 
Tell me, what am I gonna do?

 E 
   I hate it
 D A 
    I hate it here
 E    
   When you're gone
 D A A D 
 I caught myself thinking
 C#m D 
 I caught myself thinking once again
 A Adim  
 Have to try to keep my mind out of this
 Bm A   
Try not to pretend

 A D 
 I'll check the phone
 C#m D 
 I'll check the mail
 A Adim 
 I'll check the phone again and I call your mom
 Bm A 
  She says you're not there and I should take care

 E 
   I hate it here
 D A 
 When you're gone...
 E 
     I hate it
 D A 
     I hate it here
 E D A E 
    When you're gone
 D A A D 
 I try to stay busy
 C#m D 
 I take out the trash, I sweep the floor
 A Adim 
 Try to keep myself occupied
 Bm A 
Cause I know you don't live here anymore

Sonny Feeling chords – Wilco

 -------------------------------------------------------------------------------
                      SONNY FEELING - Wilco
-------------------------------------------------------------------------------
: jvwald

Tab based on this video from YouTube:

        
Tuning: Open D (DADF#AD)

A7no5 x0570x
 D5/A  x0780x
 DII  09700x
Em9no5/ D  07500x
DIII 05400x
F#mmaj9#5/ D  08600x
 G  5555xx
 D  000000
 Gm  5504xx
 Fm  3302xx
 E  222xxx
 Em7  2201xx
 Bm  x2002x
D7no5/ C  x3003x

A7no5    D5/A    A7no5    DII    Em9no5/ D DII    Em9no5/ D    DIII   F#mmaj9#5/ D DII 

riff 1
d |-----------|
A |-----------|
F#|-----------|
 D  |-0-0-0-0-0-|
 A  |-0-1-2-1-0-|
D |-----------|

 G D        riff 1
I was on my way home
 Gm D        riff 1
From high school
 Fm D        riff 1
Stuck at the crossing
 G D E 
I dug in for a duel
 G D        riff 1
But at the last moment
 Gm D        riff 1
I buried the brakes
 Fm D        riff 1
My life split in two directions
 Em7 D E 
Into two separate fates

 G D           riff 1
I got on the last flight
 Gm D        riff 1
To Amsterdam
 Fm D        riff 1
But couldn't hit the runway
 G D E 
So we took off again
 G D        riff 1
'Aw, there's no need to worry'
 Gm D        riff 1
The captain cut in
 Fm D        riff 1
'The winds are less angry
 Em7 D 
Over in Berlin'

A7no5      D5/A 
You know it's true
A7no5        DII 
The other shoe
A7no5      D5/A 
It waits for you
A7no5      DII 
What can you do?
Em9no5/ D DII    Em9no5/ D    DIII
Remember to show gratitude
A7no5         D5/A      Em9no5/ D    DIII
The darkest night is nothing new

riff 1
 G D           riff 1
Sonny's got a problem
 Gm D        riff 1
All the mini-mart clerks know
 Fm D        riff 1
She knows nothing of Eminem's
 G D E 
Suburban gangster flow
 G D        riff 1
Oh maybe it's random
 Gm D        riff 1
How each moment unfolds
 Fm D        riff 1
It didn't feel like the wrong time or place
 Em7 D 
Until they cut off her clothes

 D Bm    D7no5/ C Bm   x2

 D Bm          D7no5/ C Bm 
A sonny feeling is taken away
 D Bm          D7no5/ C Bm 
A sonny feeling is taken away
 D Bm          D7no5/ C Bm 
A sonny feeling is taken away
 D Bm          D7no5/ C Bm 
A sonny feeling is taken away

 G D    F#mmaj9#5/ D    DIII

solo
 G D    riff 1
 Gm D    riff 1
 Fm D    riff 1
 G D E G D        rif

Dash 7 Tabs by Wilco

 -------------------------------------------------------------------------------
                               DASH 7 - Wilco
-------------------------------------------------------------------------------
: jvwald

Tuning: DGDGAD

Tab based on this video from YouTube:


riff 1
d|----------------------|
A|----------------------|  x4
G|--0---0-------0-0-0-0-|
D|--4-4---4---4-4-4-4-0-|
G|--2-2-----2---x-x-----|
D|--0-------0---2-------|

riff 1 x4

riff 1 x4
Dash 7 in the air, dropped to the sun alone, jets hum

riff 2
d|---------------0--0--0--0--0--|
A|--0-0-0-0-0----0--0--0--0--0--|
G|--9-9-9-9-9/11-11-11-11-11-11-| x3
D|--0-0-0-0-0----0--0--0--0--0--|
G|--7-7-7-7-7----0--0--0--0--0--|
D|--0-0-0-0-0-------------------|

riff 3
d|---------------------------|
A|---------------------------|
G|---------------------------|
D|--10-10-10-10-10-9-9-9-9-9-|
G|--8--8--8--8--8--7-7-7-7-7-|
D|--0--0--0--0--0--0-0-0-0-0-|

riff 1 x2

riff 1 x4
I wish that I was still there, props not a jet, alone, where the sun doesn't come down

riff 2 x2

riff 4
Because I've found the way those engines sound, will make it kiss the ground
d|----------------------------------------------------|
A|----------------------------------------------------|
G|--4-4-4-4-4-2-2-2-2-2-0-0-0-0-0-0-0-0-0-0-0-0-0-0-0-|
D|--0-0-0-0-0-0-0-0-0-0-2-2-2-2-2-4-4-4-4-4-4-4-4-4-4-|
G|--x-x-x-x-x-x-x-x-x-x-x-x-x-x-x-5-5-5-5-5-x-x-x-x-x-|
D|--5-5-5-5-5-4-4-4-4-4-2-2-2-2-2-----------2-2-2-2-2-|

riff 1 x2
When you touch down
d|--------------------|
A|--------------------|
G|----0-0-0---------0-| x3
D|----4-2-0---------4-|
G|--2---2-2---------x-|
D|--0-------0h2-0h2---|

riff 1 x2

riff 1 x4
Dash 7 pointed down the captain's announcement, doesn't make a sound

riff 2 x2

riff 4
Because I've found the way those engines sound, will make it kiss the ground
riff 4
I found the way those engines sound, will make it kiss the ground,

riff 1 x4
When you touch down

riff 3

d|----|
A|----|
G|--0-|
D|--4-|
G|--2-|
D|--0-|

************************************

| /   slide up
| \   slide down
| h   hammer-on
| p   pull-off
| ~   vibrato
| +   harmonic
| x   Mute note
| b   Bend
| pb  Pre-bend
| br  Bend release
| pbr Pre-bend release
| brb Bend release bend

************************************

Rising Red Lung Tabs by Wilco V2

 -------------------------------------------------------------------------------
                            RISING RED LUNG - Wilco
-------------------------------------------------------------------------------
: jvwald

Tab based on this video from YouTube:


Tuning: Open C (CGCFAd)

(verse)
    Solar rising red lung
d|------------------------------------------|
A|------------------------------------------|
F|----9-----9---9-----9---7-----7---7-----7-|
C|------0---------0---------9---------9-----|
G|----9---9-----9---9-----9---9-----9---9---|
C|--0---------0---------0---------0---------|

    Glisten under the sun
d|--------------------------------------------|
A|--------------------------------------------|
F|----9-----9---9-----9---7------7---7------7-|
C|------0---------0---------10---------10-----|
G|----9---9-----9---9-----7----7-----7----7---|
C|--0---------0---------7----------7----------|

   I wonder when it'll part
d|--------------------------------------------|
A|--------------------------------------------|
F|----9-----9---9-----9---7------7---7------7-|
C|------0---------0---------10---------10-----|
G|----9---9-----9---9-----7----7-----7----7---|
C|--0---------0---------7----------7----------|

From the snow
d|----------------------|
A|----------------------|
F|----5-----5---5-----5-|
C|------9---------9-----|
G|----5---5-----5---5---|
C|--5---------5---------|

(verse - repeat last line once)
The melody's a mistake
Embrace at the wake
How long does it take
For us to know?

(verse - repeat last line once)
One whiff that's been blown
There's something unknown
Buried under the mound
Of snow

(verse repeat last line once)
Found a fix for the fits
Come listen to this
As intimate as a kiss
Over a phone

    And it goes
d|--------------------------|
A|--------------------------|
F|----2-----2-----2-----2---|
C|------5-----5-----5-----5-|
G|----2-----2-----2-----2---|
C|--2-----2-----2-----2-----|

d|--------------------------|
A|--------------------------|
F|----0-----0-----2-----2---|  x3
C|------7-----7-----5-----5-|
G|----5-----5-----2-----2---|
C|--0-----0-----2-----2-----|

d|----|
A|--0-|
F|--5-|
C|--9-|
G|--5-|
C|--5-|

(verse)
Found a fix for the fits
Come listen to this
It's buried under the hiss
And it glows

(verse repeat last line once)
Like a powerful smile
Car radio dial
As intimate as a kiss
Over a phone

And it goes
d|--------------------------|
A|--------------------------|
F|----2-----2-----2-----2---|
C|------5-----5-----5-----5-|
G|----2-----2-----2-----2---|
C|--2-----2-----2-----2-----|

d|--------------------------|
A|--------------------------|
F|----0-----0-----2-----2---|  x3
C|------7-----7-----5-----5-|
G|----5-----5-----2-----2---|
C|--0-----0-----2-----2-----|

d|---------------------------------------------------|   -
A|---------------------------------------------------|    | 
F|-------4-----4-----5-----5-----4-----4-----2-----2-|    |
C|-----5---5-------7---7-------5---5-------4---4-----|    |
G|---------------------------------------------------|    | x2
C|---5-------5---7-------7---5-------5---4-------4---|    |
                                                          |
d|---------------------------------------------------|    |
A|---------------------------------------------------|    |
F|-------0-----0-----0-----0-----7-----7-----7-----7-|    |
C|-----2---2-------2---2-------9---9-------9---9-----|    |
G|---------------------------------------------------|    |
C|---2-------2---2-------2---9-------9---9-------9---|   -

d|----------------------|
A|----------------------|
F|----5-----5---5-----5-|
C|------9---------9-----|
G|----5---5-----5---5---|
C|--5---------5---------|

d|--------------------------|
A|--------------------------|
F|----0-----0-----2-----2---|  x2
C|------7-----7-----5--

Shake It Off Tabs by Wilco

 -------------------------------------------------------------------------------
                             SHAKE IT OFF - Wilco
-------------------------------------------------------------------------------
: jvwald

Tab based on this video from YouTube:


Tuning: Open G (DGDGBd)

C/G xx555x
A#/F xx333x

intro
d|-----------------------------------------|
B|--3-4-5--3------------3-4-5--8--10-11-12-|
G|------------2-3-4--2---------------------|
D|-----------------------------------------|
G|--3-4-5--3------------3-4-5--8--10-11-12-|
D|------------3-4-5--3---------------------|

verse
Sunlight angles on a wooden floor at dawn, a ceiling fan is on chopping up my dreams
d|--------------------------------------|
B|--3-4-5------------3-4-5--8--10-11-12-|
G|---------2-3-4--2---------------------|
D|--------------------------------------|
G|--3-4-5------------3-4-5--8--10-11-12-|
D|---------3-4-5--3---------------------|

verse
What is left of them I take to sleep again where I dare pretend I'm more than I seem

intro x1

verse
Tears get triggered, yours remind me of the ice melting in my glass

verse
Finally full again so I listen for your lips to break apart into words

riff 1
d|----------------------------|
B|----------------------------|
G|----------------------------| x2
D|------5-----5-----5-----5---|
G|----0-----0-----0-----0-----|
D|--5-----5-----5-----5-----4-|

riff 1
It definitely starts
riff 1
to spoil my heart
riff 1
Somewhere there's a war
riff 1
Sometimes there is art
riff 1
It definitely starts
riff 1
to spoil my heart
riff 1
Somewhere there's a war
riff 1
Sometimes there is art

C/G   A#/F

C/G
When I'm awake enough
A#/F
I'm gonna shake it off
C/G
Gonna shake it off
A#/G
I'm gonna shake it off

riff 2
Oh shake it off
d|------------------------------------|
B|--3/4/5--3/4/5--3/4/5--5\3-5\3--3\1-|
G|--3/4/5--3/4/5--3/4/5--5\3-5\3--3\1-| x4
D|--x------x------x------x---x----x---|
G|--3/4/5--3/4/5--3/4/5--5\3-5\3--3\1-|
D|------------------------------------|

riff 3
d|------------|
B|------------|
G|------------|
D|------------|
G|--/8~~~-8\3-|
D|------------|

riff 4
d|------------------|
B|--3-4-5--3--------|
G|------------2-3-4-|
D|------------------|
G|--3-4-5--3--------|
D|------------3-4-5-|

verse
Hotels hold me thoughts horizon, so many hearts beating in one place

verse
Like a giant beast with many souls, no just a body full of holes

riff 5
d|----------------------------|
B|----------------------------|
G|--0-----0-----0-----0-----0-| x4
D|--5-----5-----5-----5-----5-|
G|--0-----0-----0-----0-----0-|
D|--5-----5-----5-----5-----4-|

C/G
When I'm awake enough
A#/F
I'm gonna shake it off
C/G
I'm gonna shake it off
A#/F
I'm gonna shake it off
C/G
When I'm awake enough
A#/F
I'm gonna shake it off
C/G
I'm gonna shake it off
A#/F
I'm gonna shake it off

riff 2  x4
Oh I'm gonna shake it off

riff 3

intro


************************************

| /   slide up
| \   slide down
| h   hammer-on
| p   pull-off
| ~   vibrato
| +   harmonic
| x   Mute note
| b   Bend
| pb  Pre-bend
| br  Bend release
| pbr Pre-bend release
| brb Bend release bend

************************************

Summerteeth chords – Wilco V3

 -------------------------------------------------------------------------------
                     SUMMERTEETH - Wilco
-------------------------------------------------------------------------------
: jvwald

This tab is based on this YouTube video:


Tuning: Standard

 F#  244322
 A  x02220
 E  022100
 G#  466544
 C#m  x46654
 B  x24442
 F#m  244222
F#mMaj7 243222
 F#m7  242222
 B7/A     x0444x
 B6/G#  4x444x
 B/F#  2x444x
 C/G  332010
 F  133211
 Fm  133111
 Am  x02210
 Dm  x00231
 D  x00232
 G  320033
AmMaj7 x02110
 Am7  x02010

intro
|-----------4-|
|-----------5-|
|--4/6-11-8-6-|
|--x---x--x-6-|
|--2/4-9--6-4-|
|--0---0--0---|

 F# A E G# 
Like a cloud his fingers explode
 A F# 
On the typewriter ribbon, the shadow grows
 E C#m F# A 
His hearts in a bowl behind the bank
 E G# 
And every evening when he gets home
 A F# 
To make his supper and eat it alone
 E B F#m F#Maj7 F#m7    
His black shirt cries while his shoes get cold
               B E C#m F#m 
It's just a dream he keeps having
         B B7/A B6/G# B/F# E 
And it doesn't seem to mean anything
 C#m F#m B B7/A B6/G# B/F# 
Its just a dream he keeps having

 E G# 
One summer, a suicide
 A F# 
Another autumn, a travelers guide
 E C#m F# A 
He hits snooze twice before he dies
 E G# 
And every evening when he gets home
 A F# 
To make his supper and eat it alone
 E B F#m F#Maj7 F#m7 
His black shirt cries while his shoes get cold
               B E C#m F#m 
It's just a dream he keeps having
         B B7/A B6/G# B/F# E 
And it doesn't seem to mean anything
 C#m F#m B B7/A B6/G# B/F# E 
Its just a dream he keeps having
 C#m F#m B B7/A B6/G# B/F# 
Its just a dream he keeps having

 C/G Em F Fm C/G Em F Am Dm Am D G B 
He feels lucky to have you here
 C/G A 
In his kitchen, in your chair
 G D Am    AmMaj7    Am7 
Sometimes he forgets that you're even there
               D G Em Am 
It's just a dream he keeps having
         D G 
And it doesn't seem to mean anything
 Em Am D G 
It's just a dream he keeps having
 Em Am 
It's just a dream
 D G 
And it doesn't seem to mean anything
 Em 
Oooh oooh
 Am D 
Aaah aaah

 G Em 
Oooh oooh
 Am D</spa

Reservations chords – Wilco V2

 -------------------------------------------------------------------------------
                     RESERVATIONS - Wilco
-------------------------------------------------------------------------------
: jvwald

This tab is based on this video: http://www.youtube.com/watch?v=3ox56kjygfo

Tuning: Standard
Capo V

 C  x32010
 Am  x02210
 Em  022000
 F  133211
 G  320033
 Dm  x00231
 B5/F  3230xx

intro (for piano)
 C Am Em F G C G C 
How can I convince you it's me I don't like, and
 Am Em 
Not be so indifferent to the look in your eyes
           F 
When I've always been distant
                       G C G 
And I've always told lies for love

      C 
I'm bound by these choices so hard to make
      Am Em 
I'm bound by the feeling so easy to fake
 F G C G 
None of this is real enough to take me from you

 C Em 
I've got reservations
       Am Em Dm B5/F 
About so many things, but not about you

 C Am Em F G C G C 
I know this isn't what you were wanting me to say
 Am Em 
How can I get closer and be further away
            F G C G 
From the truth that proves it's beautiful to lie

 C Em 
I've got reservations
       Am Em Dm B5/F 
About so many things, but not about you

 C Em 
I've got reservations
       Am Em Dm B5/F 
About so many things, but not about you

            F Em Dm C 
Not about you, not about you, not about you, not about you

 Am Em F G C 


************************************

| /   slide up
| \   slide down
| h   hammer-on
| p   pull-off
| ~   vibrato
| +   harmonic
| x   Mute note
| b   Bend
| pb  Pre-bend
| br  Bend release
| pbr Pre-bend release
| brb Bend release bend

************************************

Side With The Seeds chords – Wilco V3

 -------------------------------------------------------------------------------
                    SIDE WITH THE SEEDS - Wilco
-------------------------------------------------------------------------------
: jvwald

Tab based on this video on YouTube: http://www.youtube.com/watch?v=-lZeUqbVW18

Tuning: Standard
Capo I

 A  x02220
 G  320033
 F#m  244222
 Em  022000
 Dm  x00231
 D  x00232
AmII x0(10)9(10)0
AaddD# x07640
Fmaj9no5 x87060
 AII  x07650

 A 
Tires type black
            G A 
Where the blacktop cracks
 A 
Weeds spark through
       G F A 
Dark green enough to be blue

 A 
When the mysteries we believe in 
        G F#m Em           
ArenÕt dreamed enough to be true
      Dm G 
Some side with the leaves
      D A 
Some side with the seeds

 A 
The treetops nod
      G A 
the rain applauds
 A 
The park grows dark
           G F A 
And the swings all slowly die
      A 
But you and I will be undefeated
       G F#m Em 
by agreeing to disagree
         Dm G 
No one wins but the thieves
         D A 
so why side with anything

AmII   AaddD#   Fmaj9no5   AII   x2

 A G F#m Em Dm G D A G A A 
The streetlights glow
 G A 
Comes and goes
 A 
When the sun comes back
       G F A 
As we all can plainly see
 A 
Embracing the situation
        G F#m Em 
Is our only chance to be free
       Dm G 
IÕll side with you
         D          
If you side with me

AmII   AaddD#   Fmaj9no5   AII   x3


************************************

| /   slide up
| \   slide down
| h   hammer-on
| p   pull-off
| ~   vibrato
| +   harmonic
| x   Mute note
| b   Bend
| pb  Pre-bend
| br  Bend release
| pbr Pre-bend release
| brb Bend release bend

************************************

Secret Of The Sea chords – Billy Bragg And Wilco V2

 -------------------------------------------------------------------------------
            SECRET OF THE SEA - Billy Bragg and Wilco
-------------------------------------------------------------------------------
: jvwald

Tab based on this video from YouTube:


Tuning: Standard
Capo V

 D  x00232
Amadd2 x02410
 Cmaj7  x32000
 G  320033
 Em  022000
 C  x32010
Bm#5addC x20010
 Am  x02210

intro
 D   Amadd2    Cmaj7 G Em D G 
Who can guess the secret of the sea?
 Em D Em D G 
Who can guess the secret of the sea?
 D Cmaj7 
If you can guess the secret of my love for you
                              Am D G C G 
Then we both could know the secret of the sea

 C                  Bm#5addC        Am G 
Tell me could you ever tell the secret of the sea?
 C                    Bm#5addC          D 
These high rolling waves along the shore
 G D C G 
The footprints of the lovers that come here to love
         Am D 
By the tides washed away forever more

 G Em D G 
Who can guess the secret of the sea?
 Em D Em D G 
Who can guess the secret of the sea?
 D Cmaj7 
If you can guess the secret of my love for you
                              Am D G C G 
Then we both could know the secret of the sea

 C    Bm#5addC    Am G C    Bm#5addC    D C                       Bm#5addC     Am G 
You claim to know the secret of a kiss and a hug
 C                    Bm#5addC          D 
The secret of the grass and of the trees
 G D C G 
If you can tell the secret of a warm friend's hand
         Am D 
Then we all would feel the secrets of the sea

 G Em D G Em D Em D G D Cmaj7 Am D G C G G Em D G 
Who can guess the secret of the sea?
 Em D Em D G 
Who can guess the secret of the sea?
 D Cmaj7 
If you can guess the secret of my love for you
                              Am D G C G 
Then we both could know the secret of the sea
    Am Cmaj7 D G C G 
We both could know the secret of the sea


************************************

| /   slide up
| \   slide down
| h   hammer-on
| p   pull-off
| ~   vibrato
| +   harmonic
| x   Mute note
| b   Bend
| pb  Pre-bend
| br  Bend release
| pbr Pre-bend release
| brb Bend release bend

************************************

Open Mind chords – Wilco

 -------------------------------------------------------------------------------
                            OPEN MIND - Wilco
-------------------------------------------------------------------------------
: jvwald

Tuning: Standard
Capo III

 F  133211
 Em  022000
 Am  x02210
 Dm/A  x03230
 C/G  332010
 G  320003
 D7  x00212
 Am7/G  302210

intro
 F Em Am Dm/A C/G C/G F C/G G 
I will throw myself underneath the wheels of any train of thought
 C/G F C/G G 
Running off the rails I'll sail you through the rogue waves of your brain
 C/G F C/G G 
If I could bring a light to shine upon the dark and disobeying
 C/G F C/G G 
Night so young but I still say we're too old for cliches

    F Em Am Am7/G D7 
Oh I can only dream of the dreams we'd share if you were so inclined
 C/G G F Am Dm/A C/G 
I would love to be the one to open up your mind

 C/G F C/G G 
I could base my whole existence upon the cherry-strands of your gold hair
 C/G F C/G G 
I would ask, almost insist upon treating you kind and fair

    F Em Am Am7/G D7 
Oh I can only dream of the dreams we'd have if our hearts would be entwined
 C/G G F Am Dm/A C/G 
If you would let me be the one to open up your mind

 F Em Am Dm/A C/G C/G F C/G G 
I'd still be myself beneath the banks all broken beside the stream
 C/G F C/G G 
ready to return your thoughts unlearned so it goes, so it seems

    F Em Am Am7/G D7 
Oh I can only dream of the dreams we'd share if you weren't so defined
 C/G G F Am Dm/A C/G 
I would love to be the one to open up your mind
 F Em Am Dm/A C/G 
If you would let me be the one to open up your mind 

 F Em Am Dm/A C/G 


************************************

| /   slide up
| \   slide down
| h   hammer-on
| p   pull-off
| ~   vibrato
| +   harmonic
| x   Mute note
| b   Bend
| pb  Pre-bend
| br  Bend release
| pbr Pre-bend release
| brb Bend release bend

************************************

The Thanks I Get Tabs by Wilco

 -------------------------------------------------------------------------------
                            THE THANKS I GET - Wilco
-------------------------------------------------------------------------------
: jvwald

This tab is based on this YouTube video:


Tuning: Drop D

D 09777x
G 555xxx
A 777xxx
Em 222xxx
Bm 99(12)xxx
Bsus2 99(11)xxx
B5 999xxx

riff 1
E|-------------|
B|-------------|
G|-7-----7-7-7-|
D|-7-----7-7-7-|
A|-7h9-9---9-9-|
D|-0-------0-0-|

intro
riff 1 x4

D                     G
Is that the thanks I get
               riff 1 x2

For loving you?
D                     G
Is that the thanks I get
                      riff 1 x2
For telling you the truth?
G                   A
You say you wanna know
Em                 G
Where I go when I go
Em                 G
You say you wanna communicate

riff 2
But you don’t hear a word I say

riff2
E|----------------------|
B|-2-3-5-7-8-10-12-10---|
G|-0-0-0-0-0-0--0--0----|
D|-2-4-5-7-9-11-12-11-5-|
A|-0-0-0-0-0-0--0--0--5-|
D|-0-0-0-0-0-0--0--0--5-|

D                     G
Is that the thanks I get
     A      riff 1 x2
For loving you?

D                              G                  riff 1 x2
Now Im tired of the looks you give me when I get home late
D                                   G               riff 1 x2
And Im getting tired of how you forget the loving things i say
G           A
I hold you tight
Em            G
I treat you right
Em                G
Now every time I go out to play
riff 2
Why do you think I'm leaving?

D                     G
Is that the thanks I get
     A      riff 1 x2
For loving you?

     Em                      Bm   Bsus2   B5
Now faith and trust, the strongest parts of us
Em                Bm   Bsus2   B5     A
Thats ok but you must believe in our love

D                        G
We can make it better
D
We can make it better
       G                Em
let’s pull ourselves together
D
Start it again

D   G   D   x2

G           A
I hold you tight
Em                 G
You tuck me in at night
Em                       G
Oh I don’t ever want to fight again
riff 2
I think we’re both crazy

D                       G       A          D
If thats the thanks we get for falling in love

D                      G
We can make it better
D                      G
We can make it better
D                               G                Em
Oh we can make it better, lets pull ourselves together
D
Start it again


************************************

| /   slide up
| \   slide down
| H   hammer-on
| p   pull-off
| ~   vibrato
| +   harmonic
| x   Mute note
| B   Bend
| pb  Pre-bend
| br  Bend release
| pbr Pre-bend release
| brb Bend release bend

************************************

Im Always In Love Live Acoustic chords – Wilco V2

 -------------------------------------------------------------------------------
                    I'M ALWAYS IN LOVE ACOUSTIC - Wilco
-------------------------------------------------------------------------------
: jvwald

This tab is based on the video "Jeff Tweedy - I'm Always in Love - 
Seattle, WA - 12/8/2013" on YouTube:


Tuning: Drop D
Capo V

 D  000232
 G/B  x20033
F#m11/ C#  x44200
 Em  222000
 A  x02220
 Gm/A#  x10033
 E  x221000
 D7  000212

riff 1
E|-0-2-0-2-0-2-3-2-0-|
B|-3-3-3-3-3-3-3-3-3-|
G|-2-2-2-2-0-0-0-0-0-|
D|-0-0-0-0-0-0-0-0-0-|
A|---------2-2-2-2-2-|
D|-------------------|

 D G/B                  riff 1
Why, I wonder, is my heart full of holes
 D G/B                  riff 1
And the feeling goes but my hair keeps growing
         D G/B 
Will I set the sun
F#m11/ C# Em A 
On a big-wheeled wagon
 Em 
I'm bragging
 G/B Gm/A#     riff 1 x2
I'm always in love

 D G/B                  riff 1
When I let go of your throat-sweet throttle
 D G/B                  riff 1
When I clean the lash of your black-belt model
         D G/B 
Will I catch the moon
F#m11/ C# Em A 
Like a bird in a cage
 Em 
It's for you I swoon
 G/B Gm/A#     riff 1 x2
I'm always in love

 A 
I don't get the connection
 G/B 
If this is only a test
 E 
I hope I do my best
 G/B 
You know I wont forget

 A G/B    F#m11/ C# Em 

riff 1 x2

 D G/B                  riff 1
When I fold the cold in my jet-lag palm
 D G/B                  riff 1
When I soak so long I forget my mother
         D G/B 
Will I set the sun
F#m11/ C# Em A 
On a big-wheeled wagon
 Em 
I'm bragging
 G/B Gm/A# D D7 
I'm always in love
          Em 
It's a drag I sang
 G/B Gm/A# D D7 
I'm always in love
 Em Gm/A# 
I'm worried
                D G/B D G/B 
I'm always in love
 D 
I'm worried
 G/B 
I'm worried
 D 
I'm worried
 G/B 
I'm always in love


************************************

| /   slide up
| \   slide down
| H   hammer-on
| p   pull-off
| ~   vibrato
| +   harmonic
| x   Mute note
| B   Bend
| pb  Pre-bend
| br  Bend release
| pbr Pre-bend release
| brb Bend release bend

************************************

Pieholden Suite chords – Wilco V2

 -------------------------------------------------------------------------------
                 PIEHOLDEN SUITE - Wilco
-------------------------------------------------------------------------------
: jvwald

Tuning: standard

All my suggestions are based on the YouTube video "Jeff Tweedy - Pieholden
Suite (Live at the Vic)." He plays it a bit different and with a capo on 2, but
the chords are all the same I think.



 D  x00232
Ax02220
 Em  022000
Adim7 x01212
 Gm  355333
 Bm  x24432
 G  320033
 Bb  x13331
 C/G  332010
 Am  x02210
 E  022100
 F  133211
 F#m  244222
Gmadd4 33533x ?


 D 
There's a whisper
         A 
I would like to breathe
   Em 
Into your ear
     D        Adim7
But I'm too scared
    Em 
To get that close
    Gm 
To you right now

 Bm 
There are dreams
    A 
We might have shared
     G 
And I still care
     Bm        Adim7
And I still love you
 Em 
But you know how
 Bb C/G A 
I've been   untrue

 Am E Em F F#m G Gm D 
In the beginning
  A 
We closed our eyes
     Em 
Whenever we kissed
 D            Adim7
We were surprised
    Em G 
To find so much inside

 D A Em D    Adim7
 Em Gm E Em F F#m G Gm D A Em D     Adim7
 Em Bb C/B D 

************************************

| /   slide up
| \   slide down
| H   hammer-on
| p   pull-off
| ~   vibrato
| +   harmonic
| x   Mute note
| B   Bend
| pb  Pre-bend
| br  Bend release
| pbr Pre-bend release
| brb Bend release bend

************************************

Impossible Germany Acoustic chords – Wilco

 -------------------------------------------------------------------------------
                      IMPOSSIBLE GERMANY ACOUSTIC - Wilco
-------------------------------------------------------------------------------
: jvwald

Tab is based on this YouTube video: http://www.youtube.com/watch?v=uTfqWTSNss8

Tuning: Standard

 Am  x02210
 Cmaj7  x32000
 Asus4  x02230
B7no3/ C  x3420x
 G  320033
 Em  022000
 Asus2  x02200
 Em9  054000
EmII 075000

intro
 Am Cmaj7   x4

 Asus4 Am 
Impossible Germany
 Cmaj7        B7no3/ C 
Unlikely Japan
 G Em 
Wherever you go
               Am Asus2 
Wherever you land
 Asus4 Am 
I'll say what this means to me
 Cmaj7            B7no3/ C 
I'll do what I can
 G Em 
Impossible Germany 
           Am Asus2 
Unlikely Japan

 Cmaj7 Am 
The fundamental problem
 Cmaj7 Am 
We all need to face
 G Em 
This is important
         Am Cmaj7 
But I know you're not listening
        Am Cmaj7 
Oh I know you're not listening

e|---------------------------------------|
B|----8-10-10-10-8---8-10/12-12-12-8---8-|  x2
G|--9--------------9-----------------9---|
D|---------------------------------------|
A|---------------------------------------|
E|---------------------------------------|

 Asus4 Am 
If this was still new to me
 Cmaj7        B7no3/ C 
I wouldn't understand
 G Em 
Impossible Germany
           Am Asus2 
Unlikely Japan

 Asus4 Am 
But this is what love is for
 Cmaj7           B7no3/ C 
To be out of place
 G Em 
Gorgeous and alone
          Am Asus2 
Face to face

 Cmaj7 Am 
With no larger problems
 Cmaj7 Am 
That need to be erased
 G Em 
Nothing more important
           Am Cmaj7 
Than to know someone's listening
         Am Cmaj7 
Now I know you'll be listening

 G Em9    EmII    Am   x4


************************************

| /   slide up
| \   slide down
| H   hammer-on
| p   pull-off
| ~   vibrato
| +   harmonic
| x   Mute note
| B   Bend
| pb  Pre-bend
| br  Bend release
| pbr Pre-bend release
| brb Bend release bend

************************************

One By One chords – Billy Bragg And Wilco

 -------------------------------------------------------------------------------
                       ONE BY ONE - Billy Bragg and Wilco
-------------------------------------------------------------------------------
: jvwald

Tab based on this video from YouTube:


Tuning: Standard
Capo V

 G  320033
 F  133211
 C/G  332010
 Em  022000
 Am  x02210

 G F Em C/G   x2

 G F C/G Am 
One by one the teardrops fall as I write you
 G F C/G Am 
One by one my words come falling on the page
 G F C/G Am 
One by one my dreams are fading in the twilight
 G Em C/G G 
One by one my schemes are fading fast away

 G F Em C/G G F C/G Am 
One by one the flowers fading in my garden
 G F C/G Am 
One by one the leaves are falling from the trees
 G F C/G Am 
One by one my hopes are vanished in the clouds clear
 G Em C/G G 
One by one like snowflakes melting in the breeze

 G F Em C/G   x2

 Am C/G 
One by one my hair is turning gray
 G F Em 
One by one my dreams are fading fast away
 Am C/G 
One by one I read your letters over
 G F C/G G 
One by one I lay them all away

 G F Em C/G   x2

 G F C/G Am 
One by one the days are slipping up behind you
 G F C/G Am 
One by one the sweetest days of life go by
 G F C/G Am 
One by one the moments stealing out behind you
 G Em C/G G 
One by one she'll come and find not you or I

 G F Em C/G G F C/G Am 
One by one I hear the soft words that you whispered
 G F C/G Am 
One by one I feel your kisses soft and sweet
 G F C/G Am 
One by one I hope you'll say the words to marry
 G Em C/G G 
One by one to one by one forever be

 G F Em C/G   (repeat to end)


************************************

| /   slide up
| \   slide down
| H   hammer-on
| p   pull-off
| ~   vibrato
| +   harmonic
| x   Mute note
| B   Bend
| pb  Pre-bend
| br  Bend release
| pbr Pre-bend release
| brb Bend release bend

************************************

My Darling chords – Wilco V2

 -------------------------------------------------------------------------------
                           MY DARLING - Wilco
-------------------------------------------------------------------------------
: jvwald

Tab based on this video from YouTube:


Tuning: Standard
Capo: VII

 D  x00232
 G  320033
 Bm  x24432
 A  x02220
 Gm/D  x5533x
 F#m/C#  x4422x
 Em  022000
 Ddim  x00131
G6b5 34200x


intro
e|------2---1-0---0-------------------2---1-0---0---------------------------|
B|------3---3---3---1/2-2---3-1-2-----3---3---3---3-3-3-3-3-2-2-2-2-2-0-0-0-|
G|----2-----1---3---0---------0-0---2---------3---3-3-3-3-5-2-2-2-2-4-0-0-0-|
D|--0-----0-----5---1/2---2---1-2-0-----0-----5---5-5-5-5-3-4-4-4-4-2-2-2-2-|
A|------------------------------------------------5-5-5-5-5-4-4-4-4-4-2-2-2-|
E|--------------------------------------------------------------------0-0-0-|

              D 
Go back to sleep now
     G 
My darlin'
           Bm A G 
And I'll keep all the bad dreams away
 D G 
Breathe now, think sweet things
         Bm A G 
And I'll think of all the right words to say

             D 
Because we made you
     G 
My darlin'
           Bm A G 
With the love in each of our hearts
            D G 
We were a family, my darlin'
         A D 
Right from the start

 D Ddim D Gm/D F#m/C# Em D 
Grow up now
     C 
My darlin'
 Bm G 
Please don't you grow up too fast
      D C 
And be sure, darlin'
     Bm G 
To make all the good times last

             D 
Because we made you
     G 
My darlin'
           Bm A G 
With the love in each of our hearts
            D G 
We were a family, my darlin'
         A D 
Right from the start

 D Ddim D Gm/D F#m/C# Em A D G D G Bm A D E G D    G6b5


************************************

| /   slide up
| \   slide down
|  H    hammer-on
| p   pull-off
| ~   vibrato
| +   harmonic
| x   Mute note
|  B    Bend
| pb  Pre-bend
| br  Bend release
| pbr Pre-bend release
| brb Bend release bend

************************************

Capitol City chords – Wilco V2

 -------------------------------------------------------------------------------
                            CAPITOL CITY - Wilco
-------------------------------------------------------------------------------
: jvwald

Tab based on this video from YouTube:


Tuning: Standard
Capo V

 C  x32010
B7no5/ C  x3120x
 G  320033
 A7  x02020
 Am  x02210
A#dim7 x12020
 G7/B  x23030
 C/G  332010
 D7  x00212
F#7no5 212xxx
B7no5 x2120x
 Em  022000
 E7  020100

 C 
Capitol city, skyline photo
B7no5/ C G 
Skyscrapers shine, the sun's so
              A7 
Low in the sky
 C 
Secretaries at the hot dog vendors
B7no5/ C G 
Cabs honk at the bicycle messengers
          A7 
Rolling by
 Am 
I can't call with a subway token
A#dim7         A7/B 
Anyway, the phones are all broken
 C/G                   A#dim7                      D7 
I wish you were here, better yet I wish I was there with you

 G              F#7no5    G 
You wouldn't like it here
             B7no5       Em 
You should stay right there
 Am E7 Am 
Breathin' that country air
 C/G            B7no5/ C 
You wouldn't like it here

 C    B7no5/ C G A7 C 
Capitol towers radiate a steam vent
B7no5/ C G 
Scream along with the clarinets and arguments
                A7 
Echo down the hall
 Am 
I can't sleep, I can't wake up
A#dim7        A7/B 
Shakin' up, maybe we should break up
 C/G                   A#dim7                      D7 
I wish you were here, better yet I wish I was there with you

 G              F#7no5    G 
You wouldn't like it here
             B7no5       Em 
You should stay right there
 Am E7 Am 
Breathin' that country air
 C/G            B7no5/ C 
You wouldn't like it here

 C    B7no5/ C G A7 C 
Capitol city, skyline photo
B7no5/ C G 
Picture postcards signed the moon so
              A7 
Low in the sky
 Am 
I can't smile when my heart's still broken
A#dim7         A7/B 
Far away, in love and unspoken
 C/G                  A#dim7       D7 
I wish you were here or I was there with you

 G    F#7no5    G    B7no5    Em Am E7 Am 


************************************

| /   slide up
| \   slide down
| H   hammer-on
| p   pull-off
| ~   vibrato
| +   harmonic
| x   Mute note
| B   Bend
| pb  Pre-bend
| br  Bend release
| pbr Pre-bend release
| brb Bend release bend

************************************

Birds And Ships Tabs by Billy Bragg And Wilco

 -------------------------------------------------------------------------------
            BIRDS AND SHIPS - Billy Bragg and Wilco
-------------------------------------------------------------------------------
: jvwald

Tuning: Open D

intro
d |------------------------------------------------------------------------------|
A |------------------------------------------------------------------------------|
F#|------------------------------------------------------------------------------|
D |----0-2---4---4---2---2----0-2-2h4-0---0-0-----0-4-0--2-0-2---4---4/5-4---2---|
A |--0-----0---0---0---0---0-0----------0-----4-2-------0------0---0-------0---0-|
D |------------------------------------------------------------------------------|

d |--------------------------------------------------------------------|
A |--------------------------------------------------------------------|
F#|------------------------------------------------------------------0-|
D |----0-2---4---4---2---2----0-2-2h4-0---0-0-----0-4-0--2-0-2---2---0-|
A |--0-----0---0---0---0---0-0----------0-----4-2-------0------0---0-0-|
D |--------------------------------------------------------------------|

    The birds are singing in your eyes today, sweet flowers blossom in your smile
d |------------------------------------------------------------------------------|
A |------------------------------------------------------------------------------|
F#|------------------------------------------------------------------------------|
D |----0-2---4---4---2---2----0-2-2h4-0---0-0-----0-4-0--2-0-2---4---4/5-4---2---|
A |--0-----0---0---0---0---0-0----------0-----4-2-------0------0---0-------0---0-|
D |------------------------------------------------------------------------------|

    The wind and sun are in the words you say, where might your lonesome lover be?
d |--------------------------------------------------------------------|
A |--------------------------------------------------------------------|
F#|------------------------------------------------------------------0-|
D |----0-2---4---4---2---2----0-2-2h4-0---0-0-----0-4-0--2-0-2---2---0-|
A |--0-----0---0---0---0---0-0----------0-----4-2-------0------0---0-0-|
D |--------------------------------------------------------------------|

    Birds may be singing in my eyes this day, sweet flowers blossom when I smile
d |--------------------------------------------------------------------------|
A |--------------------------------------------------------------------------|
F#|---0-1-3---3---3/5---5---3---0--------------------------------------------|
D |-------0-0---0-----0---0---0---2-0---0-----0-4-0--2-0-2---4---4/5-4---2---|
A |--0--------------------------------0---4-2-------0------0---0-------0---0-|
D |--------------------------------------------------------------------------|

    But my soul is stormy and my heart blows wild, my sweetheart rides a ship on the sea
d |----------------------------------------------------------------------|
A |----------------------------------------------------------------------|
F#|----------------------------------------------------------------0-----|
D |----0-2---4---4---2---2----0-2-2h4-0---0-0-----0-4-0--2-0-2---2---2-0-|
A |--0-----0---0---0---0---0-0----------0-----4-2-------0------0-------0-|
D |----------------------------------------------------------------------|

d |--------------------------------------------------------------------------|
A |--------------------------------------------------------------------------|
F#|---0-1-3---3---3/5---5---3---0--------------------------------------------|
D |-------0-0---0-----0---0---0---2-0---0-----0-4-0--2-0-2---4---4/5-4---2---|
A |--0--------------------------------0---4-2-------0------0---0-------0---0-|
D |--------------------------------------------------------------------------|

    Though my soul is stormy and my heart blows wild, where might 

At My Window Sad And Lonely chords – Billy Bragg And Wilco V2

 -------------------------------------------------------------------------------
             AT MY WINDOW SAD AND LONELY - Billy Bragg and Wilco
-------------------------------------------------------------------------------
: jvwald

Tab based on this video from YouTube:


Tuning: Standard
Capo II

 G  320003
 C  x32010
 Em  022000

intro
 G C G   x4

        G C G C 
At my window, sad and lonely
 Em C G C 
Oft times do I think of thee
        G C G C 
Sad and lonely and I wonder
 Em C G C 
Do you ever think of me

 G Em G 
Every day is sad and lonely
 Em G C 
And every night is sad and blue
 G Em 
Do you ever think of me my darling
         C G C G C 
As you sail that ocean blue

        G C G C 
At my window, sad and lonely
 Em C G C 
I stand and look across the sea
 G C G C 
And I sad and lonely wonder
 Em C G C 
Do you ever think of me

 G Em G 
Will you find another sweetheart
 Em G C 
In some far and distant land
 G Em 
Sad and lonely now I wonder
         C G C 
If our boat will ever land

 G C   x2

 G Em G 
Ships may ply the stormy ocean
 Em G C 
And planes may fly the stormy sky
 G Em 
I'm sad and lonely but remember
          C G C 
Oh I'll love you till I die

 Em C G 


************************************

| /   slide up
| \   slide down
| H   hammer-on
| p   pull-off
| ~   vibrato
| +   harmonic
| x   Mute note
| B   Bend
| pb  Pre-bend
| br  Bend release
| pbr Pre-bend release
| brb Bend release bend

************************************

You Never Know chords – Wilco V4

 -------------------------------------------------------------------------------
                            YOU NEVER KNOW - Wilco
-------------------------------------------------------------------------------
: jvwald

Tab is based on this live performance on YouTube:


 E  022100
F#m11/ E  044200
 D  x00232
 A  x02220
 Em  022000
Adim7 x01212

intro
 E    F#m11/ E E    F#m11/ E E A   x2

 E                         F#m11/ E E 
Come on, children you're acting like children
F#m11/ E E A 
Every generation thinks it's the end of the world

 E    F#m11/ E E    F#m11/ E E A E                     F#m11/ E E 
All you fat followers get fit fast
F#m11/ E E A 
Every generation thinks it's the last
 D 
Thinks it's the end of the world

 E    F#m11/ E E    F#m11/ E E A D A 
Yes, dream down a well
 D                      Adim7
There's a lone heavy hell
 Em A 
I don't care anymore
 Em A 
I don't care anymore

 D A 
It's a feeling we transcend
 D                       Adim7
That we're here at the end
 Em A 
I don't care anymore
 Em A 
I don't care anymore, you never know

 E    F#m11/ E E    F#m11/ E E A E                     F#m11/ E E 
Come on, kids you're acting like children
F#m11/ E E A 
Act your age, put back the black metals and pearls

 E    F#m11/ E E    F#m11/ E E A E                            F#m11/ E E 
Oh, all you sword swallowers pull yourselves together
F#m11/ E E A 
Every generation thinks it's the worst
 D 
Thinks it's the end of the world

 E    F#m11/ E E    F#m11/ E E A D A 
It's a secret I can't tell
 D                       Adim7
There's a wish down a well
 Em A 
I don't care anymore
 Em A 
I don't care anymore
 D A 
It's a long heavy hell
 D                  Adim7
Super size it by ten
 Em A 
I don't care anymore
 Em A 
I don't care anymore, you never know

 E    F#m11/ E E    F#m11/ E E A 

I will never know
 E    F#m11/ E E    F#m11/ E E A D A D    Adim7

 Em A 
I don't care anymore
 Em A 
I don't care anymore

 D A 
It's a secret I can't tell
 D                       Adim7
There's a wish down a well
 Em A 
I don't care anymore
 Em A 
I don't care anymore

 D A 
It's a dear to transcend
 D                      Adim7
And we're here at the end
 Em A 
I do