Tag: Wine

Before I Found The Wine chords – Tommy Cash

 C F 
Yesterday I had a future and I was happy

            G7 C 
I had your love and the whole wide world was mine

                                                F 
I had money to spend and a woman who called me darling

         G7 C 
Yes but that was before I found the wine


 F C 
Before I found the wine my life had meaning

                          D7 G7 
There were happy days at my house all the time

   C F 
I remember when you told me I hung the moon and made your sunshine

         G7 C 
Yes but that was before I found the wine


                                     F 
I wish that I could go back to your world

          G7 C 
Hold you close to me and know that you are mine

                                        F 
And I wish that I could hear you say I love you

          G7 C 
Just the way you did before I found the wine


 F C 
Before I found the wine my life had meaning

                          D7 G7 
There were happy days at my house all the time

   C F 
I remember when you told me I hung the moon and made your sunshine

         G7 C 
Yes but that was before I found the wine


         G7 F C 
Yes but that was before I found the wine

All Along The Watchtower chords – Jimi Hendrix V3

 
Intro:  (  Bb Cm Bb Ab  ) x4  

 Bb Cm Bb Ab Bb Cm Bb Ab  
   "There must be some kind of way out of here,"  said the joker to the thief
 Bb Cm Bb Ab Bb Cm Bb Fm    
    "There's too much confusion,      I can't get no relief
 Bb Cm Bb Ab Bb Cm Bb Ab    
     Businessmen, they drink my wine,   plowmen dig my earth
 Bb Cm Bb Ab Bb Cm Bb Ab   
     None will level on the line,     nobody of it is worth"

Solo: (  Bb Cm Bb Ab  ) x4 

 Bb Cm Bb Ab Bb Cm Bb Ab 
    "No reason to get excited,"   the thief, he kindly spoke
 Bb Cm Bb Ab Bb Cm Bb Fm 
    "There are many here among us,   who feel that life is but a joke
 Bb Cm Bb Ab Bb Cm Bb Ab 
    But you and I, we've been through that,  and this is not our fate
 Bb Cm Bb Ab Bb Cm Bb Ab     
    So let us not talk falsely now,    the hour's getting late" hey

Solo: (  Bb Cm Bb Ab  ) x16

 Bb Cm Bb Ab Bb Cm Bb Ab  
   All along the watchtower,   princess kept the view
 Bb Cm Bb Ab Bb Cm Bb Fm 
    While all the women came and went,  barefoot servants, too, well
 Bb Cm Bb Ab Bb Cm Bb Ab  
   Outside in the cold distance,    a wildcat did growl
 Bb Cm Bb Ab Bb Cm Bb Ab    
     Two riders were approaching,   and the wind began to howl, hey

Solo: (  Bb Cm Bb Ab  )  (repeat fade)

Communion Cups And Someones Coat Tabs – Iron And Wine V6

 Tabbed by: § NOSSTROSSOLIS §
Revised by: jakemdm
Email: aneyer@mica.edu

Tuning: E A D G B e

Capo on 4th


Intro: x 2

e|------------------------------------------------3------5------3---------------|
B|0-----3--------0h1p0-------------------3----------3------3------0-----3-------|
G|--0h2----0h2---------2p0-----0----0h2------0--------0------0------0h2----0h2--|
D|-------------------------0h2-----------------0--------------------------------|
A|3------3------------------------3--------3----------------------3-------3-----|
E|---------------3--------------------------------3-----------------------------|

e|---------------------------------3-----------|
B|0h1p0-------------------3-----------3-----3--|
G|------2p0-----0----0h2------0----------0-----|
D|----------0h2-----------------0--------------|
A|-----------------3--------3------------------|
E|3--------------------------------3-----------|


Verse 1:
e|------------------------------------------------3------5------3---------------|
B|0-----3--------0h1p0-------------------3----------3------3------0-----3-------|
G|--0h2----0h2---------2p0-----0----0h2------0--------0------0------0h2----0h2--|
D|-------------------------0h2-----------------0--------------------------------|
A|3------3------------------------3--------3----------------------3-------3-----|
E|---------------3--------------------------------3-----------------------------|
                Talk of yesterday...
e|---------------------------------3------------|
B|0h1p0-------------------3-----------3-----3---|
G|------2p0-----0----0h2------0----------0------|
D|----------0h2-----------------0---------------|
A|-----------------3--------3-------------------|
E|3--------------------------------3------------|

e|------------------------------------------------3------5------3---------------|
B|0-----3--------0h1p0-------------------3----------3------3------0-----3-------|
G|--0h2----0h2---------2p0-----0----0h2------0--------0------0------0h2----0h2--|
D|-------------------------0h2-----------------0--------------------------------|
A|3------3------------------------3--------3----------------------3-------3-----|
E|---------------3--------------------------------3-----------------------------|
                Say tomorrow...
e|---------------------------------3-----------|
B|0h1p0-------------------3-----------3-----3--|
G|------2p0-----0----0h2------0----------0-----|
D|----------0h2-----------------0--------------|
A|-----------------3--------3------------------|
E|3--------------------------------3-----------|

Chorus: x2
e|----------------------------------------------------------|
B|0----3-------0----3-------0----3-------0-------3----------|
G|-------0-----------0---------------0-------0-------0------|
D|---2-----2/4----4-----4/5----5-------5-------5-------5----|
A|0------------2------------3------3-------3-------3--------|
E|----------------------------------------------------------|
   But say...


e|------------------------------------------------3------5------3---------------|
B|0-----3--------0h1p0-------------------3----------3------3------0-----3-------|
G|--0h2----0h2---------2p0-----0----0h2------0--------0------0------0h2----0h2--|
D|-------------------------0h2-----------------0--------------------------------|
A|3------3------------------------3--------3----------------------3-------3-----|
E|---------------3--------------------------------3-----------------------------|

e|---------------------------------3-----------|
B|0h1p0-------------------3-----------3-----3--|
G|------2p0-----0----0h2------0----------0-----|
D|----------0h2-----------------0--------------|
A|-----------------3--------3------------------|
E|3--------------------------------3-----------|


Verse 2:
e|------------------------------------------------3------5------3---------------|
B|0-----3--------0h1p0-------------------3----------3------3------0-----3-------|
G|--0h2----0h2---------2p0-----0----0h2------0--------0------0--

Slime And Oxygen chords – Black Lips

 Intro
e---------------------------|
b---------------------------|
g---------------------------|
d---------------------------|
a---2---2---2---2---2---2---|
e-0---0---0---0---0---0-----|

This basically turns into violent strumming of the E chord

Chords:  E A D G A D E A D 
I walked the path of million men
 G A D 
I gorge the belly I fight and sin
 E A D 
Battles in the Trojan War
 G A D 
I drink the wine and blood of before
 E A D 
A nimble skull will always crack
 G A D 
1000 year faithful attack
 E A D 
Will a coward die from calloused hands
 G A D 
3000 rationed spinach cans

 E A D 
owooohhhhhh
 G A D 
owooohhhhhh

 E A D 
Juggernaut will crush the bum
 G A D 
Combatant of the drunken slum
 E A D 
Gnawing on the greed of war

 E A D 
A giddy doctrine will not live
 G A D 
A pancake covered battle shield
 E A D 
Must condemn the weakling mind
 G A D 
For your book that must be bind

 E A D 
owooohhhhhh
 G A D 
owooohhhhhh

Tab By: Austin Wiseman

Jon Theis – Aint Been A Day Yet chords

 Ain't Been a Day Yet- Jon Theis

 G C D C G G 
Ain't been a day yet
                    C 
And I spent my paycheck
       D 
on smoke and wine
        C G 
and things that make me feel fine.

I aint told my wife yet
I bet she'll throw a big fit
I can already hear her
yellin' my name

 G C D C G 

What's done is done now
I wouldn't change it anyhow
It's just the way I am
The way I live

I need a vacation
from this occupation
and drinkin myself blind 
most every night

 G C D C G 

Take me back to the good days
to the place where my mind will stay
that's the only way I'll find
my place in life

Aint been a day yet
since I spent my paycheck
Lord I hope she don't leave me for good.

Would You Be Impressed chords – Streetlight Manifesto V3

 STROFA
 Am  /  E  /  Am G  /  Am Dm  /  Am  /  E  /  Am Dm  /  Am  /  E  /  Am 

FILL x2
 Am  /  E  /  Dm  /  Am Dm  /  Am  /  E  /  Am 



Would you be upset if I told you we were dying?
And every cure they gave us was a lie?
Oh! They mean it when they say we're dead and doomed
And every single symptom brings us closer to the tomb
And who will take the credit for our swift, impending fall
Because it's not my fault
Would you be impressed if I said that the dead would help us counting 
Every single moment that we waste our time?
All the time we're spending vaccinating this disease
I just get dizzy when I think of all the ways we try to hide our maladies
We wine, we dine, and everything is fine
Because it's not my fault
Now you're upset because you finally got the notion
That everything you had is spinning down the drain
Oh! Do you mean it when you beg and pray and plead? 
Your "Give it to me give it to me give it to me give it to me all those things we need"
And what, pray tell, will you whimper when your number will be called? 
You'll say "It's not my fault"
Go! Now! The others, they'll await you
And every single one among the lot of you will have your turn
Ai Ai Ai Oh Oh Oh
Like moths that fly into the flame it always ends up so
You scream: "Not me! Take anybody else!
Because it's not my fault!"
I had a dream last night where everyone was trying
Subconsciously I knew it was a lie
And when I woke I knew that it was time to pray
To make amends before the end, before my judgment day
I looked around, I stood alone, I knew what I had to say 
I said "It's all my fault"

Whiskey And Wine chords – Tom Beck

 Hey Leute, das ist mein aller erster Chord, bitte seht es mir nach wenn irgendetwas 
nicht stimmt und verbessert es einfach in den Kommentaren.

Ich habe übrigens nicht den gesamten Text raushören können, leider nur refrain und 
bridge, also wenn ihr den rest raushört, ab damit in die Kommentare.



Tom Beck
Whiskey and Wine


Refrain:
 C G Am F C 
sitting on the couch drinkin´ whisky and wine
 C G Am F C 
birds on the floor, tell me that your fine
 C G Am F 
just wastin´ time, heaven on earth
 Am G C 
you and I


Bridge:
 Am G 
girl you crazy and offword
                     Am 
you´re anoying and wierd
                        G 
but that´s just what I want

baby yeah!

Fever Dream Tabs by Iron And Wine V5

 Fever Dream
Iron and Wine

Standard Tuning
Capo 2nd fret

Intro/Verse

e|--2--------------------2-----------------------|
B|--------0--3--------0-----------0--3-----------|
G|-----0-----------0-----------0-----------0-----|
D|--2-----------2-----------2-----------2-----0--|
A|-----------------------------------------------|
E|-----------------------------------------------|

e|-----------------------------------------------|
B|--3--------3-----------3-----------3-----------|
G|-----0-----------0-----------0-----------0-----|
D|--------4-----------4-----------4-----------0--|
A|--3-----------3-----------3-----------3--------|
E|-----------------------------------------------|

e|-----------------------|-----------------------|
B|--1--------3-----------|--3--------3-----------|
G|-----0-----------0-----|-----0-----------0-----|
D|--------2-----------2--|--------4-----------4--|
A|--0-----------0--------|--2-----------2--------|
E|-----------------------|-----------------------|

e|-----------------------------------------------|
B|--3--------3-----------3-----------3-----------|
G|-----0-----------0-----------0-----------0-----|
D|--------5-----------5-----------5-----------0--|
A|--3-----------3-----------3-----------3--------|
E|-----------------------------------------------|

x's 2

Chorus:

e|-----------------------------------------------|
B|--1--------3-----------1-----------3-----------|
G|-----0-----------0-----------0-----------0-----|
D|--------2-----------2-----------2-----------2--|
A|--0-----------0-----------0-----------0--------|
E|-----------------------------------------------|

e|--0------------------0---------------------|
B|----------3---------------------3----------|
G|-----0/2--------0/2--------0/2--------2\0--|
D|--0----------0----------0----------0-------|
A|-------------------------------------------|
E|-------------------------------------------|

x's 3

e|-----------------------------------------------|
B|--1--------3-----------1-----------3-----------|
G|-----0-----------0-----------0-----------0-----|  
D|--------2-----------2-----------2-----------2--|
A|--0-----------0-----------0-----------0--------|
E|-----------------------------------------------|

e|-----------------------------------------------|
B|--0--------3-----------1-----------1-----------|
G|-----0-----------0-----------0-----------0-----|  
D|--------0-----------0-----------0-----------0--|
A|-----------------------------------------------|
E|--3-----------3-----------3-----------3--------|

e|--------------------------3-----------3-----|
B|--0-----------3-----------------------------|
G|--------0-----------0-----------0-----------|
D|-----------0-----------0-----------0--------|
A|--------------------------------------------|
E|-----3-----------3-----------3-----------3--|

*Lead:

e|--7--|--7--8--8/10--8--7--7/8--7-----|
B|-----|----------------------------8--|
G|-----|-------------------------------|
D|-----|-------------------------------|
A|-----|-------------------------------|
E|-----|-------------------------------|

e|---------7------------------0--|------7---------8--|
B|--8--10-----10--8--8/10--8-----|--10-----8--10-----|
G|-------------------------------|-------------------|
D|-------------------------------|-------------------|
A|-------------------------------|-------------------|
E|-------------------------------|-------------------|

e|-----7--|--7--8--8/10--8--7--7/8--7-----|
B|--10----|----------------------------8--|
G|--------|-------------------------------|
D|--------|-------------------------------|
A|--------|-------------------------------|
E|--------|-------------------------------|

e|---------7------------------0--|------7------------|
B|--8--10-----10--8--8/10--8-----|--10-----8--10--8--|
G|-------------------------------|-------------------|
D|-------------------------------|-------------------|

Communion Cups And Someones Coat Tabs by Iron And Wine V4

 Open G Tuning DGDGBD

Capo on 4th fret

Intro/Verses:

D|--------0---------------------------------0---------5-----7-----5----|
B|--0---------------0h1p0------------0------------------3--------------|
G|----0-------0-----------2p0-----0----0--------0---------0-----0------|
D|------7-------7-------------0h2---------7-------7--------------------|
G|--5-------5-------0----------------5--------5-------0-------0--------|
D|---------------------------------------------------------------------|

D|--------0---------------------------------0---------5-----------0----|
B|--0---------------0h1p0------------0--------------------3------------|
G|----0-------0-----------2p0-----0----0--------0-------------0--------|
D|------7-------7-------------0h2---------7-------7--------------------|
G|--5-------5-------0----------------5--------5-------0----------------|
D|---------------------------------------------------------------------|

Chorus:

D|---------------------------------------------------------------------|
B|--0---------0-----0---------0-----0---------0-----0---------0--------|
G|------0-------0-------0-------0-------0-------0-------0-------0------|
D|--------2---------------4---------------5---------------5------------|
G|--2---------------4---------------5---------------5------------------|
D|---------------------------------------------------------------------|

Thats the whole song.  The other tabs looked to be pretty accurate, but
playing in open G makes it a heck of a lot more manageable.

Red Dust Tabs by Iron And Wine V2

 intro and verse
e-------------------------------------------------------------|
b-------------------------------------------------------------|
g-------------------------------------------------------------|
d-------3-----------3----------3------------------------------|
a-3h5-5---5--3-3-5-----5-3h5-5---5-3-3-5----------------------|
e---------------------------------------3-1-------------------|

chorus (This is how it is on the record, but it's pretty open to play around with 
however you'd like. Make it yours!)

e-------------------------------------------------------------|
b-------------------------------------------------------------|
g-------------------------------------------------------------|
d-3--5p3-3-3-3-5p3--2--3p2-2-5-3-2-2-3------------------------|
a-3-----------------2------------------5----------------------|
e-1-----------------0-----------------------------------------|

Rabbit Will Run chords – Iron And Wine

 I play at Capo 4 or 5

 Em G 
Last I saw mother she rose from a chair
           Am C 
When they caught me I'd just finished combing my hair
          Em G Am C 
'Cause a rabbit will run, as a colt does along with the mare 
       Em G 
We've all learned the earth while we carried the throne 
         Am C 
We dove under the rivers and under our clothes 
       Em G Am C 
And I still have a prayer, as sure as my settling bones

Bottle Of Wine chords – The Olms

 The Olms - Bottle of Wine


Standart Tunning

Intro:  Em Bm Am D G G C 
Bottle of wine, tear in my eye, a photograph
       D G 
In my empty room, sitting on the floor

     G Bm F E 
And even though, we don't share our lovin' anymore
      Am Am/G      
And now that I can't change your mind 
 D 
like I did before

 Em Am D G G G /F#   Em 
  I remember those long summer days when you were mine 
     Am D 
and never thought of going away
 Em Am D G 
  I grew cold and I had nothing to say
     G G/F# Em Am D 
And I could hear strange memmories on your mind


 G G C 
Bottle of wine, tear in my eye, the photograph
       D G 
In a lonelier world without the one you want
         G Bm               
Though summer is gone and winter is here
       F E 
With cold and frost dew
   Am Am/G D 
I hope someday the sun will shine down upon me too

Solo over chorus' chords


 G G C 
Bottle of wine, tear in my eye, the photograph
       D G 
In a lonelier world without the one you want
         G Bm               
Though summer is gone and winter is here
       F E 
With cold and frost dew
   Am Am/G D 
I hope someday the sun will shine down upon me too


Outro:  C Cm G

Sacred Vision chords – Iron And Wine V2

 Capo 5

INTRO

 C Am G C G 


VERSE 1
         C Am     
There's no way to temper your thirst
      G C G 
With lasting impressions or pictures of home
         C Am 
There's no way to grow that don't hurt
     G C G 
She growled from the station then hung up the phone


CHORUS
         Cmaj9 Am 
There's no sacred vision like her
    G C G 
No eye-crushing mountain or jewelry to wear
         Cmaj9 Am 
There's no granted wish I prefer
      G C G 
Then she to be with me, for us to be there

 C Am G C G 


VERSE 2
     C Am 
I'd rather to be all alone
    G C G 
Forgiveness is fickle when trust is a chore
      C Am 
It's not every sin that's atoned
   G C G 
I heard her speak softly then heard her no more


CHORUS
         Cmaj9 Am 
There's no sacred vision like her
    G C G 
No eye-crushing mountain or jewelry to wear
         Cmaj9 Am 
There's no granted wish I prefer
      G C G 
Then she to be with me, for us to be there

 C Am G C G

On Your Wings Tabs by Iron And Wine V4

 ----------------------------------------------------------------
                             ON YOUR WINGS - Iron & Wine
----------------------------------------------------------------
: Bowen Jones
 jonesb93

Tuning: Standard

e|------------------------------------------------------|
B|------------------------------------------------------|
G|-----------10-7-5-7-----------------------------------|
D|--5-5-3-0---------------------------------------------|
A|------------------------------------------------------|
E|------------------------------------------------------|

e|--------------------------------------------------------------|
B|--------------------------------------------------------------|
G|------10---------10---------10---------10---------------------|
D|---------10---------8----------8----------8-------------------|
A|--------------------------------------------------------------|
E|--8-8--------8-8--------6-6--------6-6------------------------|

Slide part

e|------------------------------------------------------|
B|--6/8-------------------------------------------------|
G|---------5/7------------------------------------------|
D|------------------------------------------------------|
A|------------------------------------------------------|
E|------------------------------------------------------|

e|------------------------------------------------------|
B|--------------11\10--10\8--8\6--6/8--8----------------|
G|--5/7--7\5----------------------------------5/7-------|
D|------------------------------------------------------|
A|------------------------------------------------------|
E|------------------------------------------------------|

e|------------------------6-----------------------------|
B|-------6-8--6-------6-8---8-(6)-----------------------|
G|--5/7----------5/7------------------------------------|
D|------------------------------------------------------|
A|------------------------------------------------------|
E|------------------------------------------------------|


************************************

| /   slide up
| \   slide down
| h   hammer-on
| p   pull-off
| ~   vibrato
| +   harmonic
| x   Mute note
| b   Bend
| pb  Pre-bend
| br  Bend release
| pbr Pre-bend release
| brb Bend release bend

************************************

The Wine We Drink chords – Drew Holcomb And The Neighbors

 (Capo: 6th fret)
Dsus4add9:  x  5  4  0  3   0
                     
 
 G C G 
I have a tendency to laugh at all the wrong moments.
        C G 
Sometimes I forget the words to my own song.
                 C Am C 
I'm not the silent type or an exit sign or a yellow brick road.
 C                 Dsus4add9        G 
You are the one thing that I know.


 G C 
It's in the wine we drink, dirty dishes in the kitchen sink,
          Em                                                      Dsus4add9
and the lights go out til the sun comes up; we are not alone.
 G C 
It's in the miles we drive, never having to say goodbye 
        Em                                      Dsus4add9
to the things we tell each other without saying a word.
 C                 Dsus4add9        G 
You are the one thing that I know.


 G C G 
There's a beauty that we never know what the future holds.
                   C G 
Beneath the surface we are the calm, we are the storm.
               C Am C 
I'm not a sunset or a hurricane or a Vincent Van Gogh.
 C                 Dsus4add9        G 
You are the one thing that I know.


 G C 
It's in the wine we drink, dirty dishes in the kitchen sink,
             Em                                                   Dsus4add9
and the lights go out til the sun comes up; we are not alone.
 G C 
It's in the miles we drive, never having to say goodbye 
          Em                                    Dsus4add9
to the things we tell each other without saying a word.
 C                 Dsus4add9        G 
You are the one thing that I know.


 G C Em7 C C Am Em7 C   Dsus4add9


 G C 
It's in the wine we drink, dirty dishes in the kitchen sink,
             Em                                                  Dsus4add9
and the lights go out til the sun comes up; we are not alone.
 C                 Dsus4add9        G 
You are the one thing that I know.

Ashes And Wine chords – A Fine Frenzy V2

 I tabbed it half step down, and I like it best that way. If you prefer you can play this 
song with a capon on the first fret and the chords D, Em, G and Bm (click transpose -2).


Intro:  E F#m A E F#m 
Don’t know what to do anymore
      A E 
I’ve lost the only love worth fighting for
                            F#m A 
I’ll drown in my tear storming sea, that would show you,
                     E 
that would make you hurt like me
            F#m A E 
All the same,     I don’t want mud-slinging games
              F#m A 
it’s just a shame to let you walk away


 E 
Is there a chance,
                A 
A fragment of light at the end of the tunnel, a reason to fight,
 E A 
Is there a chance you may change your mind
                          E F#m A 
or are we ashes and wine?


       E F#m 
Don’t know if our fate’s already sealed
      A E 
This day’s a spinning circus on a wheel
                                  F#m 
I’m ill with the thought of your kiss
 A E 
Coffee-laced, intoxicating on her lips
         F#m A E 
Shut it out, I’ve got no claim on you now
         F#m A 
I’m not allowed to wear your freedom down


 E 
Is there a chance,
                A 
A fragment of light at the end of the tunnel, a reason to fight,
 E A 
Is there a chance you may change your mind
                          E 
or are we ashes and wine?

      C#m A E 
I’ll tear myself away, if that what you need
          A E A 
There is nothing left to say, but


 E 
Is there a chance,
                A 
A fragment of light at the end of the tunnel, a reason to fight,
 E A 
Is there a chance you may change your mind
                          E 
or are we ashes and wine?
 A E 
reduced to ashes and wine
 A 
or are we ashes…

Cheap Wine Tabs by Charlie Parr V3

  mwirmm

Artist: Charlie Parr
Song: Cheap wine
Tuning: Standard

Hi guys, I got the finger picking down from one of the live versions of this song, 
sounds excellent to me.

Put a capo wherever you want if you have one (so you can get the singing right), the 
live version I tabbed was tuned a half step down though.

As I'm sure most of you have figured out, the basic chord progression here is

Am, F, C, G

The Picking goes like this:
           Am          F                           C           G
E|-----------0----0--------------0-----0-----------0-----0---------0--------|
B|--------1-------------------1------------------1---------------0----------|
G|--------------2*-------------------2*-------0*----------------------------|
D|---------------------0 h 3*----------------------------------0*-----------|
A|------0*--------------------------------------------3*-----------------2--|
E|-------------------------------------------------------------------3*-----|

The alternating bass notes are the most important and are marked with a star.

Just get the picking down and that's the whole song, you can add a few notes here and 
there but the most important thing is that you hear that alternating bass line throughout 
the song.

Naked As We Came chords – Iron And Wine V3

 Intro:  D Em  x2

 D Em 
She says "Wake up, it's no use pretending" 
 D Em 
I'll keep stealing, breathing her.
 D Em 
Birds are leaving over autumn's ending 
 D Em A 
One of us will die inside these arms 

 Em A 
Eyes wide open, 
 Em A 
Naked as we came 
 Em A 
One will spread our 
 Em D 
Ashes 'round the yard 

 D Em 
She says "If I leave before you, darling 
 D Em 
Don't you waste me in the ground" 
 D Em        
I lay smiling like our sleeping children 
 D Em A 
One of us will die inside these arms 

 Em A 
Eyes wide open, 
 Em A 
Naked as we came 
 Em A 
One will spread our 
 Em D 
Ashes 'round the yard

Grass Widows chords – Iron And Wine

 -------------------------------------------------------------------------------
                             Grass Widows - Iron And Wine
-------------------------------------------------------------------------------
: nodelynk
 nodelynk, gmail

Tuning: Standard

               Gm 
We found each other blown between the trees
        Cm 
Waning moons wanting to be swallowed by the sea
 Eb Dm Gm 
Like we finally saw the colors of the world
            
             Gm 
We grew the garden snake within the weeds
           Cm 
Laid each other long across a flat back street
 Eb Dm Gm 
Like we finally saw the colors of the world

             Gm 
We felt the sun leave us for the west
        Cm 
Little lips always falling farther from the breast
 Eb Dm Gm 
Like we finally saw the colors of the world

          Gm 
We ran a white flag up the mast
          Cm 
Puckered up like a widow dreaming in the grass
 Eb Dm Gm 
Like we finally saw the colors of the world

             Bb F 
Like we saw black, like we saw black and blue
     Eb Dm Gm 
You pressed a pillow full of snow on my bruise
             Bb F 
Like we saw black, like we saw God green too
     Eb Dm Gm 
You saw an awful but it's over too soon

             Bb F 
Like we saw black running around red ripe vines
   Eb Dm Gm 
I found you in the folds of the lonely red night
             Bb F 
Like we saw black, lying in golden white light
 Eb Dm Gm 
Lonely so you tried to love me all right

              Gm 
We threw our money to the river stones
          Cm 
Led each other through the woods to wander back alone
 Eb Dm Gm 
Like we finally saw the colors of the world

            Gm 
We let the taste linger in the mouth
           Cm 
South Chicago never gave us more to sing about
 Eb Dm Gm 
Like we finally saw the colors of the world

What A Buzz Chords – Olly Murs V2

 Saw the other version, which is nearly correct, yet needed transposing and then a 
little rearranging. This one seems to play along to the track correctly, let me 
know if it works! :D

Key: B major (nasty key - so many sharps and all of that. Gah)

     F# C# B 
The date is going well I think, well everything accept. 
     F# C# B 
I'm laughing like a lunatic at everything she says. 
     F# C# B 
Got ketchup on my trousers and my cheeks are going red. 
 G#m B 
Tonight I drink wine with the girl I just met.

   F# C# B 
I had to think of things to do to stop my nervous hands. 
     F# C# B 
The label on the bottle never really stood a chance. 
     F# C# B 
The salt & pepper pots were getting well into their dance.
 G#m B 
Tonight I went out with the girl I just met.

 F# C# B 
Tell me all about you. (What a buzz) 
 F# C# B 
Where I'd be without you. (What a buzz) 
 F# C# B 
Tell me all about you.
        G#m B 
What a beautiful buzz with the girl I might love.

     F# C# B 
I'm staring across the table at the nicest eyes I've seen. 
 F# C# B 
I said they were brown but she insisted they were green. 
      F# C# B 
So I called over the waiter and he told me he agreed. 
   G#m B 
Tonight I drink wine with the girl that likes me. (What a buzz)

 F# C# B 
Tell me all about you. (What a buzz) 
 F# C# B 
Where I'd be without you. (What a buzz) 
 F# C# B 
Tell me all about you.
        G#m B 
What a beautiful buzz with the girl I might love.

 E B F# 
   Any time any place. 
 E B F# 
   Coast to coast or out of space 
         E B  
You can find the two of us, 
     F# E 
the young that drunk the love. 
 G#m C# 
Tonight we drank wine.
So. 

 F# C# B 
Tell me all about you. (What a buzz) 
 F# C# B 
Where I'd be without you. (What a buzz) 
 F# C# B 
Tell me all about you.
        G#m B 
What a beautiful buzz with the girl I might love.

(I like this girl) 

     F# C# B 
The date is going well I think, well everything accept. 
     F# C# B 
I'm laughing like a lunatic at everything she says. 
     F# C# B 
Got ketchup on my trousers and my cheeks are going red. 
 G#m B 
Tonight I drink wine with the girl I just met.