Tag: Wings

On Eagles Wings chords – Josh Groban

 ON EAGLE'S WINGS
Josh Groban/ John Relova

Intro: D- D -Em-D-D7-G-Em-F#m-Em-A7-D D7

 G DM7 
 You who dwell in the shelter of the Lord,
        G DM7 
 Who abide in His shadow for life,
   F Dm 
 Say to the Lord:"My refuge,
       F Gm          Asus-A
 My rock in whom I trust!"
 
 REFRAIN:
       A7 D DM7 
     And he will raise you up on eagle's wings,
       Em A7 
     Bear you on the breath of dawn,
       D D7 G Em  
     Make you to shine like the sun,
           F#m Em A7 D D7 
     And hold you in the palm   of His hand.

 G DM7 
 The Snare of the Flower will never capture you,
        G DM7 
 And famine will bring you no fear;
   F Dm 
 Under His wings your refuge,
       F Gm       Asus-A
 His faithfulness    your shield
 
        (Repeat Refrain)

 G DM7 
 And for to His angels he’s given a command,
        G DM7 
 To guard you in all of your ways;
   F Dm 
 Upon their hands they will bear you up,
            F Gm              Asus-A
 Lest you dash your foot against a stone

        (Repeat Refrain)
        Bm F#m Em7 A G  -  Gm  -  D       
And hold you,   hold you in the palm of His hand.

Broken Wings chords – Anastacia

 BROKEN WINGS
ANASTACIA
RESURRECTION (2014)


Intro |  D# A#  |  Cm G#  |


 D# A# Cm G# D# A# Cm G# 
   Wings of an angel, replaced by beautiful scars, well hidden in the dark.
 D# A# Cm G# D# A# Cm G# 
   Time seems to stand still, the world is falling apart, so heavy on my heart.
           Fm Cm G# 
And it's raining, and it all comes crashing down,
               Fm A# 
anyone would give up, but not me, not now.


                   G# A# Cm D# 
Even with broken wings, even with shattered dreams,
                   G# A# Cm D# 
I'm still gonna try,     I'm still gonna fly..
                   G# A# Cm D# 
Even with broken wings, I can do anything,
              Fm A# 
I found a strength I never knew I had in me,
                    D# A# Cm G# 
with these broken wings..


 D# A# Cm G# D# A# Cm G# 
   Turning the pages, cuts like a knife once again, where does the end begin?
 D# A# Cm G# D# A# Cm G# 
   Through all the stages, a silent fighter inmate, you got to lose to win..
              Fm Cm G# 
Through the fire, and the smoke it starts to clear,
               Fm A# 
anyone would give up, but not now, not here..



                   G# A# Cm D# 
Even with broken wings, even with shattered dreams,
                   G# A# Cm D# 
I'm still gonna try,     I'm still gonna fly..
                   G# A# Cm D# 
Even with broken wings, I can do anything,
              Fm A# 
I found a strength I never knew I had in me,
                    D# A# Cm   
with these broken wings!
      G# D# A# Cm G# 
Yeah!   I said I never doubted, wrapped my  head around it,
   Fm G# A# 
changed my everything..


             G# A# Cm D# 
Even with broken wings, even with shattered dreams, 
                   G# A# Cm G# 
I'm still gonna try,     I'm still gonna fly..
                   G# A# Cm D# 
Even with broken wings, even with shattered dreams,
                   G# A# Cm D# 
I'm still gonna try,     I'm still gonna fly!
                   G# A# Cm D# 
Even with broken wings, I can do anything,
              Fm A# 
I found a strength I never knew I had in me,
               D# A# G# A# D# 
with these broken wings..    Oh-ahh-ahh-oh..

Birds With Broken Wings chords – Ben Caplan

 Birds with Broken Wings by Ben Caplan

These are Chords and Tab to this version of the song: https://www.youtube.com/watch?v=P6byMJHNrBQ
Im pretty sure that this is 99,9% accurate. Have fun! :) 



(Intro)  

 Em 


(Verse)

          Em Am 
Bring me birds with broken wings, Men with all the answers,
 B Em 
People who have killed,Give me incurable cancers.
           Em Am 
Bring me creatures baked in oil, Give me disregard for doubt,
 B Em 
Street lights shine on broken Roads where no one is about.
              Em Am 
I want that hopeless dream depression, Punishments without a cause,
          B Em 
Give me impotent obsession, And disregard for laws.
            Em Am  
I want the trees in single file, Bring the corpse of something rare,
         B Em 
Show me children who are sinners, Show me mounds of human hair.


(Chorus)

 Am Em 
I climbed up the mountain just to kill my son,
 Am Em 
An angel tried to stop me with a ram,
              Am Em 
Well he said “your mind’s infected”, But I said “you lack perspective”,
 B 
You gotta walk the bottom if you wanna see the top,


 Em Am B Em 
La da da da, La da da da, La da da da da da da da da da  
 Em Am B Em 
La da da da, La da da da, La da da da da da da da da da  



(Verse)

         Em Am 
Give me poison I can swim in, Water I can’t drink,
  B Em 
Wheels that won’t stop spinning, Teach my children not to think.
             Em Am 
I want the fruit that tastes like nothing, And two thumbs for every crook,
          B Em 
Give me lessons without questions, Mild the days the books.
        Em Am 
Give me metaphors unraveled, Poetry defined,
             B Em 
Bring me the head of Dionysius, But please don’t spill out the wine.
          Em Am 
Trade the future for the present, Trade me ashes for my history,
         B Em 
I don’t need to look inside,I know the answer to the mystery.

(Ends with this harmonic:)

e|--12+--|
B|--12+--|
G|--12+--|
D|-------|
A|-------|
E|-------|


(Chorus)

 Am Em 
I climbed up the mountain just to kill my son,
 Am Em 
An angel tried to stop me with a ram,
              Am Em 
Well he said “your mind’s infected”, But I said “you lack perspective”,
 B 
You gotta walk the bottom if you wanna see the top,


 Em Am B Em 
La da da da, La da da da, La da da da da da da da da da  
 Em Am B Em 
La da da da, La da da da, La da da da da da da da da da  


(Bridge)

 C Em 
Oh I know they call me crazy,
 C Em 
But there will be no turning back,
 Am Em 
I don’t care if things get ugly.
 B 
Once the word of god is spoken,
 B 
There’s no way to take it back,


(Solo)

e|-7----------------|-8----------------|
B|---8-------7-8----|---8-------7-8----|
G|-----9-8-9-----9--|-----9-8-9-----9--|
D|------------------|------------------|
A|------------------|------------------|
E|------------------|------------------|

e|----------7-6h7p6------------------------------|
B|-----7-------------8-7-8-7h8p7---------7-8-----|
G|-8-9----------------------------9-8-9-------9--|
D|-------9---------------------------------------|
A|-----------------------------------

Eagles Wings chords – Praise And Worship

 -------------------------------------------------------------------------
                             Eagles Wings
-------------------------------------------------------------------------

 ***************************************************************
 *     "markchordz" 6 Years in the road(UG)                    *
 * Thanks for supporting my tabs here in Ultimate-guitar.com   * 
 ***************************************************************


************************************************************************** 
*Read first: Pls Rate, leave some comments and be sure that your         *
* guitar "tune" well before playing this song..                          *
*                                                                        *
*            All Rights Reserved © Copyright 2014                        *
************************************************************************** 



  Am D           
Here I am waiting

  G Em 
Abide in me I pray

   Am D G 
Here I am longing for you

    Am D  
Hide me in Your Love

  G Em 
Bring me to my knees

     Am D G 
May I know Jesus more and more


Chorus:

  G C 
Come live in me

     Am D 
All my life take over,

    G C 
Come breathe in me

      Am D D7 G 
And I will rise.. on Eagles wings

Backwards Traveller chords – Wings

 ---------------------------------------------------------------------------
                Backwards Traveller – Wings
---------------------------------------------------------------------------
: maguri
Tuning: Standard

Wings
Backwards Traveller (1978)
(Paul McCartney)

From: "London Town"

---------------------------------------------------------------------------


 C F Em 
Hey, did you know that I'm 
 Am Em 
Always going back in time
 F E E/G# Am 
Rhyming Slang, Auld Lang Syne, my dears
 F Fm 
Through the yea--ears

 C 
I am the backwards traveller
 Gm 
Ancient wool unraveller
 Fsus4 F Csus4 Cm Gm 
Sai---ling songs, wai---ling on the moon

 C 
I am the backwards traveller
 Gm 
Ancient wool unraveller
 Fsus4 F Csus4 Cm Gm 
Sai---ling songs, wai---ling on the moon
                C 
Wailing on the moon

             Gsus4 Gm 
And we were sai---ling songs
 Dm Am 
  Wailing on the moon
                      Dm  [break]   Dm C Dm 
Yeah, wailing on the moon

Love Take Me Down chords – Wings

 Cm Ab Bb Cm 
Where the air twists and shimmers in the heat
 Bb Eb Bb Eb 
Love take me down, love take me down
 Cm Bb Ab Bb Cm 
Where a pair of lonely ones can always meet
 Bb Eb Bb Eb Ab 
Love take me down, love take me down where I'm longing to be

Chorus:
 Eb Cm Bb Eb Cm Bb 
Love take me down to the streets,  love take me down to the streets
              G Cm Ab    
Cause when he don't get fed at home, still gotta give your dog his bone
 Bb Eb 
Take our lovin' to the streets………Come on!

 Cm Ab Bb Cm 
Here we stand, open and honest of our deeds
 Bb Eb Bb Eb 
Love take me down, love take me down
 Cm Bb Ab F Cm 
I need you but you need something special first from me
 Bb Eb Fm Ab 
Love take me down where I'm so apt to be

Chorus:
 Eb Cm Bb Eb Cm Bb 
Love take me down to the streets, love take me down to the streets
 G Bb Ab 
Cause when the love don't work at home, you gotta find it on the road
 Bb Eb 
Take our lovin' to the streets

Bridge:
 Cm B C        
To the washes and the bridges, to the shadows in the alleys, to the places 
                    Fm 
where the boogaloo sleeps
                            Eb 
We do things quite neatly, things that we could never speak of
             Ab Bb Cm 
Cause we've got our love and our secret to keep, ooh yeah
 F Fm Eb Gm Ab Bb Eb Dm Cm Bb Ab Bb Cm 
It's time for now, the fire is out as you can see
 Bb Eb Bb Eb 
Love took me down, love took me down
 Cm Bb Ab Bb Cm 
But I'll be back and you've got places to be
 Bb Eb Fm Ab 
Love take me down where I'm longing to be

Chorus:
 Eb Cm Bb Eb Cm Bb 
Love take me down to the streets, love take me down to the streets
 Eb Cm Bb 
Love take me down to the streets (down, down, down)
 Eb Cm Bb 
Love take me down to the streets (love take me down, love take me down)
 Fm F C 
Love take me down to the streets (bangin' on a streetlight, bangin' on a streetlight)
 Fm F C 
Love take me down to the streets (bangin' on a streetlight, bangin' on a streetlight)
 Fm F C 
Love take me down to the streets (bangin' on a streetlight, bangin' on a streetlight)
 Fm F C 
Love take me down to your streetlight

Love Take Me Down chords – Wings V2

 Capo on 6

 Am F G Am  
Where the air twists and shimmers in the heat 
 G C G C  
Love take me down, love take me down 
 Am G F G Am  
Where a pair of lonely ones can always meet 
 G C G C F 
Love take me down, love take me down where I'm longing to be 

Chorus: 
 C Am G C Am G  
Love take me down to the streets, love take me down to the streets 
               E Am F  
Cause when he don't get fed at home, still gotta give your dog his bone 
 C  
Take our lovin' to the streets………Come on! 

 Am F G Am  
Here we stand, open and honest of our deeds 
 G C G C  
Love take me down, love take me down 
 Am G F C Am  
I need you but you need something special first from me 
 G C Dm F  
Love take me down where I'm so apt to be 

Chorus: 
 C Am G C Am G  
Love take me down to the streets, love take me down to the streets 
 E G F  
Cause when the love don't work at home, you gotta find it on the road 
 G C  
Take our lovin' to the streets 

Bridge: 
 Am Ab A       
To the washes and the bridges, to the shadows in the alleys, to the places 
                     Dm 
where the boogaloo sleeps
                            C  
We do things quite neatly, things that we could never speak of 
             F G Am  
Cause we've got our love and our secret to keep, ooh yeah 
 D Dm C Em F G C Bm Am G F G Am  
It's time for now, the fire is out as you can see 
 G C G C  
Love took me down, love took me down 
 Am G F G Am  
But I'll be back and you've got places to be 
 G C Dm F  
Love take me down where I'm longing to be 

Chorus: 
 C Am G C Am G  
Love take me down to the streets, love take me down to the streets 
 C Am G  
Love take me down to the streets (down, down, down) 
 C Am G  
Love take me down to the streets (love take me down, love take me down) 
Key Change ^
 Dm D A  
Love take me down to the streets (bangin' on a streetlight, bangin' on a streetlight) 
 Dm D A  
Love take me down to the streets (bangin' on a streetlight, bangin' on a streetlight) 
 Dm D A  
Love take me down to the streets (bangin' on a streetlight, bangin' on a streetlight) 
 Dm D A  
Love take me down to your streetlight

On Your Wings Tabs by Iron And Wine V4

 ----------------------------------------------------------------
                             ON YOUR WINGS - Iron & Wine
----------------------------------------------------------------
: Bowen Jones
 jonesb93

Tuning: Standard

e|------------------------------------------------------|
B|------------------------------------------------------|
G|-----------10-7-5-7-----------------------------------|
D|--5-5-3-0---------------------------------------------|
A|------------------------------------------------------|
E|------------------------------------------------------|

e|--------------------------------------------------------------|
B|--------------------------------------------------------------|
G|------10---------10---------10---------10---------------------|
D|---------10---------8----------8----------8-------------------|
A|--------------------------------------------------------------|
E|--8-8--------8-8--------6-6--------6-6------------------------|

Slide part

e|------------------------------------------------------|
B|--6/8-------------------------------------------------|
G|---------5/7------------------------------------------|
D|------------------------------------------------------|
A|------------------------------------------------------|
E|------------------------------------------------------|

e|------------------------------------------------------|
B|--------------11\10--10\8--8\6--6/8--8----------------|
G|--5/7--7\5----------------------------------5/7-------|
D|------------------------------------------------------|
A|------------------------------------------------------|
E|------------------------------------------------------|

e|------------------------6-----------------------------|
B|-------6-8--6-------6-8---8-(6)-----------------------|
G|--5/7----------5/7------------------------------------|
D|------------------------------------------------------|
A|------------------------------------------------------|
E|------------------------------------------------------|


************************************

| /   slide up
| \   slide down
| h   hammer-on
| p   pull-off
| ~   vibrato
| +   harmonic
| x   Mute note
| b   Bend
| pb  Pre-bend
| br  Bend release
| pbr Pre-bend release
| brb Bend release bend

************************************

Were Open Tonight chords – Wings

 ---------------------------------------------------------------------------
                We're Open Tonight – Wings
---------------------------------------------------------------------------
: maguri
Tuning: Standard

Wings
We're Open Tonight (1979)
(McCartney)

From: "Back to the Egg"

---------------------------------------------------------------------------
CHORDS

     E-A-D-G-B-E
 G6    3-x-0-4-3-0
 Gm6   3-x-0-3-3-0

---------------------------------------------------------------------------

INTRO / VERSE
   G6 Gm6 
  1 + 2 + 3 + 4 +  1 + 2 + 3 + 4 +  
e|------0-------0-|------0-------0-|
B|----8-------8---|----8-------8---|
G|--7-------7-----|--7-------7-----|
D|9-------9-------|8-------8-------|
A|----------------|----------------|
E|----------------|----------------|
BREAK
   G6 Gm6 
  1 + 2 + 3 + 4 +  1 + 2 + 3 + 4 +  
e|------0-------0-|------0---------|
B|----8-------8---|----8-----------|
G|--7-------7-----|--7-------------|
D|9-------9-------|8---------------|
A|----------------|----------------|
E|----------------|----------------|

CODA
   G6 Gm6 
  1 + 2 + 3 + 4 +  1 + 2 +    
e|------0-------0-|--------|0
B|----8-------8---|--8---7-|8
G|--7-------7-----|11--9---|7
D|9-------9-------|8---8---|8
A|----------------|--------|
E|----------------|--------|

---------------------------------------------------------------------------

INTRO
|  G6  |  Gm6  |  G6  |  Gm6  |

 G6 Gm6          
  We're open tonight for fun
 G6 Gm6          
  So bring all your friends, come on
 G6 Gm6 G6 Gm6  [Break]
  We're open tonight, come one, come all

 G6 Gm6          
  We're opening all our doors
 G6 Gm6          
  We're clearing back all the floors
 G6 Gm6 G6 Gm6  [Break]
  We're open tonight, come one, come all

|  G6  |  Gm6  |  G6  |  Gm6  |
Oooh ...
  G6 Gm6 G6 Gm6  
          Come one, come all
 G6 Gm6  [CODA]
   We're open tonight

Mrs Vandebilt chords – Wings

 ---------------------------------------------------------------------------
                Mrs Vandebilt – Wings
---------------------------------------------------------------------------
: maguri
Tuning: Standard

Wings
Mrs Vandebilt
(McCartney)

From: "Band on the Run" (1973)

---------------------------------------------------------------------------
CHORDS

       E-A-D-G-B-E
 Dm7/C   x-3-x-2-1-1
 G/B     x-2-0-0-3-3
 Am/E    x-x-2-2-1-0

---------------------------------------------------------------------------

INTRO
|  Am  |  Em  |  E  |  Am  |

 Am 
Down in the jungle living in a tent
     Em 
You don't use money, you don't pay rent
     E 
You don't even know the time
               Am 
But you don't mind

 Am Em E Am 
Ho, hey, ho - Ho, hey, ho
 Am Em E Am 
Ho, hey, ho - Ho, hey, ho

           Am Em 
When your light is on the blink
           E Am 
You never think of worrying
 E Am 
 What's the use of worrying?
 
           Am Em 
When your bus has left the stop
            E Am 
You better drop your hurrying
 E                 |   Am   |     A     |
 What's the use of hurrying?

 Dm Dm7/C G/B G 
Leave me alone Mrs. Vandebilt
          C Em 
I've got plenty of time of my own

INTERLUDE (sax)
|  Dm  | % |  Am  | % |

 E Am 
 What's the use of worrying?
 E Am 
 What's the use of hurrying?
 E Dm Am/E Am  [break]
 What's the use of a—ny----thing?

 Am Em E Am 
Ho, hey, ho - Ho, hey, ho
 Am Em E         |  Am  |  A  |
Ho, hey, ho - Ho, hey, ho

SOLO [chorus (half-time)]
|  Dm  |  Dm7/C  |  G/B  |  G  | 
|  C  | % |  Em  | % | 
|  Dm  | % |  Am  | % |

 E Am 
 What's the use of worrying?
 E Am 
 What's the use of hurrying?
 E Dm Am/E Am 
 What's the use of a—-ny----thing?

 Am Em E Am 
Ho, hey, ho - Ho, hey, ho
 Am Em E Am 
Ho, hey, ho - Ho, hey, ho


           Am Em 
When your pile is one the wane
              E Am 
You don't complain of robbery

 E Am 
 Run away don't bother me
 E Am 
 What's the use of worrying?
 E Dm Am/E   |  Am  |  A  |
 What's the use of a—-ny----thing?

 Dm Dm7/C G/B G 
Leave me alone Mrs. Washington
          C Em 
I've got plenty of time of my own

INTERLUDE (sax)
|  Dm  | % |  Am  | % |

 E Am 
 What's the use of worrying? 
 E Am 
 What's the use of hurrying? (No use!)
 E Dm Am/E Am  [break]
 What's the use of a—ny----thing?

 Am Em E Am 
Ho, hey, ho - Ho, hey, ho
 Am Em 

Im Carrying Tabs by Wings

 ---------------------------------------------------------------------------
                I’m Carrying – Wings
---------------------------------------------------------------------------
: maguri
Tuning: Standard

Wings
I’m Carrying (1978)
(Paul McCartney)

From: "London Town"

---------------------------------------------------------------------------

This is the basic guitar accompaniment. There are some slight variations
here and there which I did not include. They come naturally.

VERSE
  E                Edim             F#m7             Bsus4
  1 + 2 + 3 + 4 +  1 + 2 + 3 + 4 +  1 + 2 + 3 + 4 +  1 + 2 + 3 + 4 +
e|----0-----0-----|----0-----0-----|----0-------0---|--0-----0-------|
B|--12----12----12|--11----11----11|--10----10----10|--------------0-|
G|13----13----13--|12----12----12--|11----11----11--|----11----11----|
D|----------------|----------------|----------------|9-----9-----9---|
A|----------------|----------------|----------------|----------------|
E|----------------|----------------|----------------|----------------|

CHORUS
  E                F#m7    Bsus4    E                F#m7    Bsus4
  1 + 2 + 3 + 4 +  1 + 2 + 3 + 4 +  1 + 2 + 3 + 4 +  1 + 2 + 3 + 4 +
e|----0-----0-----|----0-----0-----|----0-----0-----|----0-----0-----|
B|--12----12----12|--10----------0-|--12----12----12|--10----------0-|
G|13----13----13--|11----11----11--|13----13----13--|11----11----11--|
D|----------------|--------9-------|----------------|--------9-------|
A|----------------|----------------|----------------|----------------|
E|----------------|----------------|----------------|----------------|
  E                F#m7    Bsus4    E
  1 + 2 + 3 + 4 +  1 + 2 + 3 + 4 +  1 + 2 + 3 + 4 +  1 + 2 + 3 + 4 +
e|----0-----0-----|----0-----0-----|----0-----0-----|----0-----0-----|
B|--12----12----12|--10----------0-|--12----12----12|--12----12----12|
G|13----13----13--|11----11----11--|13----13----13--|13----13----13--|
D|----------------|--------9-------|----------------|----------------|
A|----------------|----------------|----------------|----------------|
E|----------------|----------------|----------------|----------------|

---------------------------------------------------------------------------
CHORDS

There are no strummed chords in the recording. If I want to strum along
casually/softly I use these chords:

      E-A-D-G-B-e
E     x-x-6-4-0-0
Edim  x-x-5-3-5-0
F#m7  x-x-4-2-5-0
Bsus4 x-2-4-4-0-0


For a fuller sound I tune down the high e-string and play like this:

      E-A-D-G-B-d
E     0-2-2-1-0-2
Edim  0-1-2-0-2-2
F#m7  2-4-4-2-2-2
Bsus4 x-2-4-4-5-2


---------------------------------------------------------------------------

E                Edim
 By dawn's first light I'll come back 
F#m7          Bsus4
To your room again
E           Edim
 With my carnation hidden 
F#m7        Bsus4
By the packages

    E           F#m7 Bsus4
I'm carrying 
E           F#m7 Bsus4
Something
    E        F#m7  Bsus4   | E | % |
I'm carrying something for you


E              Edim
 Ah, long time no see baby 
F#m7                 Bsus4
Sure has been a while
E          Edim
 And if my reappearance 
F#m7             Bsus4
Lacks a sense of style

    E           F#m7 Bsus4
I'm carrying 
E           F#m7 Bsus4
Something
    E        F#m7  Bsus4   | E | % |
I'm carrying something for you


| E | Edim | F#m7 | Bsus4 |
  Aaah ...
| E | Edim | F#m7 | Bsus4 |
  Aaah ...

    E           F#m7 Bsus4
I'm carrying      
      E        F#m7 Bsus4
Can’t help it  aah ...
    E        F#m7  Bsus4   [E]
I'm carrying something for you


| E | Edim | F#m7 | Bsus4 |
             Oooh ...
| E | Edim | F#m7 | Bsus4 |
  Ooooh ...

    E           F#m7 Bsus4
I'm carrying    Ooooh ...
E           F#m7 Bsus4
Something  Ooooh ...
    E        F#m7  Bsus4   E 
I'm carrying something for you


Paper Wings Acoustic solo Tabs by Rise Against

 -------------------------------------------------------------------------------
                           Paper Wings (Acoustic) Solo - Rise Against
-------------------------------------------------------------------------------
: Conballz

Such a beautiful little solo to a great acoustic version of this song. This is the solo to
Chris Chasse's version, (Rise Against's old guitarist), if you were unsure where I was getting
this from. If you haven't heard it, look it up! It's great. :P I learned the chords off another
tab on this, which is where the tuning is from. It didn't have the solo so I tried my hand at it.
Might be a few little slips of notes but I think it's fairly accurate. :) Also it's my first tab,
so don't be surprised if there is a few errors. :P

Tuning: Standard (Capo on 3rd Fret)

e|------------------------------------------------------------------------------------------|
B|------------------------------------------------\11-8h9p8-11-9-8h9p8----------------------|
G|-8-7h8-10p8p7-8--7h8-10p8p7-8--7h8-10p8p7-8--8p7p0-----------------------8-8/10-10p9p8-8--|
D|------------------------------------------------------------------------------------------|
A|------------------------------------------------------------------------------------------|
E|------------------------------------------------------------------------------------------|

e|---------------------------------------------------------------------------|
B|----8-/15-15p13p12p11-11/13-13p12p11-11-9-(9)\6-8/9-8-6--------------------|
G|-\8-----------------------------------------------------8------------------|
D|---------------------------------------------------------------------------|
A|---------------------------------------------------------------------------|
E|---------------------------------------------------------------------------|

e|---------------------------------11-15-13-11-10-11-10-11-------------------|
B|-6-11h12h13h15-15p13p12p11--11-13------------------------15p13p12p11-11/13-|
G|---------------------------------------------------------------------------|
D|---------------------------------------------------------------------------|
A|---------------------------------------------------------------------------|
E|---------------------------------------------------------------------------|

e|-11-13-13-11-10h11-11------------------------------------------------------|
B|---------------------------------------------------------------------------|
G|---------------------------------------------------------------------------|
D|---------------------------------------------------------------------------|
A|---------------------------------------------------------------------------|
E|---------------------------------------------------------------------------|

Also, here is the intro bit at the start played over the guitar if anyone wants it.
Just mess around with it to make it sound better.

e|---------------------------------------------------------------------------|
B|---------------------------------------------------------------------------|
G|---------------------------------------------------------------------------|
D|-8-6-5-6-5-8-6-10-10-10---6-5---5-------5----------------------------------|
A|------------------------------8---8--8-6---8-6-----------------------------|
E|---------------------------------------------------------------------------|




************************************

| /   slide up
| \   slide down
| h   hammer-on
| p   pull-off

************************************

Broken Wings Tabs by Flyleaf V2

 Broken Wings – Flyleaf

Tuning: Drop D
Level: Easy
: notgonnadie

This song is really fun to play (with both rhythm guitar and lead) and I thought I’d put
up a tab on here so you guys can play it. This song is really easy, and it sounds good,
about 99.9% correct. So, I hope you like it and be sure to check out my other tabs. 
Enjoy! (I will add more lead guitar parts in the future)

Verse 1

E---------------------------------|
B---------------------------------|
G---------------------------------|
D-4-4-7-7-0-0-0-0-4-4-2-2-0-0-0-0-|
A-4-4-7-7-0-0-0-0-4-4-2-2-0-0-0-0-|
D-4-4-7-7-0-0-0-0-4-4-2-2-0-0-0-0-|
Thank you for being such a friend to me, oh I pray a friend for life

E---------------------------------|
B---------------------------------|
G---------------------------------|
D-4-4-7-7-0-0-0-0-4-4-2-2-0-0-0-0-|
A-4-4-7-7-0-0-0-0-4-4-2-2-0-0-0-0-|
D-4-4-7-7-0-0-0-0-4-4-2-2-0-0-0-0-|
And have I ever told you just what you mean to me, oh you’re everything to me

E---------------------------------|
B---------------------------------|
G---------------------------------|
D-4-4-4-4-2-2-2-2-0-0-0-0-0-0-0-0-|
A-4-4-4-4-2-2-2-2-0-0-0-0-0-0-0-0-|
D-4-4-4-4-2-2-2-2-0-0-0-0-0-0-0-0-|
And I am so lost for words

E---------------------------------|
B---------------------------------|
G---------------------------------|
D-4-4-4-4-2-2-2-2-0-0-0-0-0-0-0-0-|
A-4-4-4-4-2-2-2-2-0-0-0-0-0-0-0-0-|
D-4-4-4-4-2-2-2-2-0-0-0-0-0-0-0-0-|
And I am so overwhelmed

Verse 2

E---------------------------------|
B---------------------------------|
G---------------------------------|
D-4-4-7-7-0-0-0-0-4-4-2-2-0-0-0-0-|
A-4-4-7-7-0-0-0-0-4-4-2-2-0-0-0-0-|
D-4-4-7-7-0-0-0-0-4-4-2-2-0-0-0-0-|
Please don’t go just yet, can you stay a moment, please?

E---------------------------------|
B---------------------------------|
G---------------------------------|
D-4-4-7-7-0-0-0-0-4-4-2-2-0-0-0-0-|
A-4-4-7-7-0-0-0-0-4-4-2-2-0-0-0-0-|
D-4-4-7-7-0-0-0-0-4-4-2-2-0-0-0-0-|
We can dance forever, we can dance forever

E------------------------------------------------|
B------------------------------------------------|
G------------------------------------------------|
D-4-4-4-4-2-2-2-2-0-0-0-0-0-0-0-0-0-0-0-0-0-0-0--|
A-4-4-4-4-2-2-2-2-0-0-0-0-0-0-0-0-0-0-0-0-0-0-0--|
D-4-4-4-4-2-2-2-2-0-0-0-0-0-0-0-0-0-0-0-0-0-0-0--|
Under you stars tonight

E------------------------------------------------|
B------------------------------------------------|
G------------------------------------------------|
D-4-4-4-4-2-2-2-2-0-0-0-0-0-0-0-0-0-0-0-0-0-0-0--|
A-4-4-4-4-2-2-2-2-0-0-0-0-0-0-0-0-0-0-0-0-0-0-0--|
D-4-4-4-4-2-2-2-2-0-0-0-0-0-0-0-0-0-0-0-0-0-0-0--|
And I am so overwhelmed
Chorus

E---|
B---|
G---|
D-0-|
A-0-|
D-0-|
Carried by thousand broken

E---------------------------------|
B---------------------------------|
G---------------------------------|
D-4-4-4-4-4-4-4-4-2-2-2-2-2-2-2-2-|
A-4-4-4-4-4-4-4-4-2-2-2-2-2-2-2-2-|
D-4-4-4-4-4-4-4-4-2-2-2-2-2-2-2-2-|
wings

E---------------------------------|
B---------------------------------|
G---------------------------------|
D-0-0-0-0-0-0-0-0-0-0-0-0-0-0-0-0-|
A-0-0-0-0-0-0-0-0-0-0-0-0-0-0-0-0-|
D-0-0-0-0-0-0-0-0-0-0-0-0-0-0-0-0-|
(At the end) A thousand broken

E---------------------------------|
B---------------------------------|
G---------------------------------|
D-4-4-4-4-4-4-4-4-2-2-2-2-2-2-2-2-|
A-4-4-4-4-4-4-4-4-2-2-2-2-2-2-2-2-|
D-4-4-4-4-4-4-4-4-2-2-2-2-2-2-2-2-|
wings

E---------------------------------|
B---------------------------------|
G---------------------------------|
D-0-0-0-0-0-0-0-0-0-0-0-0-0-0-0-0-|
A-0-0-0-0-0-0-0-0-0-0-0-0-0-0-0-0-|
D-0-0-0-0-0-0-0-0-0-0-0-0-0-0-0-0-|

Solo Rhythm

E---------------------------------|
B---------------------------------|
G---------------------------------|
D-4-4-4-4-4-4-4-4-2-2-2-2-2-2-2-2-|
A-4-4-4-4-4-4-4-4-2-2-2-2-2-2-2-2-|
D-4-4-4-4-4-4-4-

Famous Groupies chords – Wings

 Famous Groupies Chords
Paul McCartney

: Ben Zavala

1 2, 1 2 3 4

 C Em Am G 
All Stand Back, Let The People See 
 C Em Am G   
Take A Snap Of The Famous Groupies For Me 

 A Dm 
Behold The Famous Groupies 

They Are Alike As Two Peas 
                                                Em A 
And Where The Other Goes, The Other Goes 
       Am 
But Though The Famous Groupies 
       G Em 
Are Only Paid In Rupees 
 Am D 
Nobody Knows What The Famous Groupies Know 
 Am G 
And Nobody Goes Where The Famous Groupies Go 


 A Dm 
There Was A Bongo Player
 
Who Kept An Extra Layer 
                                  Em A 
Of Dunlopillo Mattress In His Van 
        Am 
But When The Famous Groupies 
 G Em 
Arrived With Their Twin Snoopies 
 Am D 
Nobody Saw Which Way The Poor Boy Ran 
 Am D 
Nobody Does It Like A Famous Groupie Can 


 C Em Am G 
All Stand Back, Let The People See 
 C Em Am G    
Take A Snap Of The Famous Groupies For Me


 A Dm 
There Was A Lead Guitarist
 
Who Lived In Epping Forest
                                    Em A 
And All He Ever Wanted Was To Blow 

’Lord Knows Why’

 Am 
But When The Girls Were With Him 
      G Em 
He Never Lost His Rhythm 
       Am D 
And Nobody Knows What The Famous Groupies Know 
 Am G 
Nobody Goes Where The Famous Groupies Go 


 C Em Am G   (x  2)    



 A Dm 
There Was A Classic Story
 
Of A Roadie Nicknamed Rory 
                                                  Em A 
Who Used To Practice Voodoo On The Side 
 Am 
But When The Famous Twosome 
 G Em 
Suggested Something Gruesome 
 Am D 
All That They Found Was A Crater Two Miles Wide 
          Am D 
Which Left The Music Business Absolutely Horrified 


 C Em Am G 
All Stand Back, Let The People See 
 C Em Am    
Take A Snap Of The Famous Groupies

Famous Groupies

Famous Groupies...etc


Ladies And Gentlemen, Those Magnificent Examples Of 
Female Pulchritude And Luminosity, Direct From Their 
Global Perambulations To The Very Boards Of This 
Supremely Magnificent Proscenium Arch - Ladies And 
                                               C G 
Gentlemen, I Give You Famous Groupies! 

Spread Your Wings Tabs by Radical Something

 Radical Something - Spread Your WIngs


Chords:
e|---5---5---4---4---4---4---3---3|
B|---5---5---4---4---4---4---4---4|
G|---5---5---6---6---4---4---5---5|
D|---7---7---6---6---6---6---5---5|
A|--------------------------------|
E|--------------------------------|
Fill:
e|--------------------------------|
B|----5------4-------4------4-----|
G|---5-5----6-------4-4----5------|
D|--7------6-------6------5-------|
A|-7--------------6---------------|
E|--------------------------------|

Pretty simple. Sounds better with a mellow tone.

Alien Days Chords – Mgmt V2

 MGMT - Alien Days

Standard Tuning (EADGBe)

Capo on 1st fret

Chords used:
 G#7sus4     (464644)
Emaj7      (022144) alt. (021100)
 C#m         (x46654)
 Edim        (x02323)
C7#9b5     (x4545x) alt. (x45450) 
 D6          (xx0202)
 G#7         (464544)

 E B7 E E7 
Sometimes the windows combine with the seams in a way
 C D7 G#7sus4 
That twitches on a peak at the place where the spirit was slain
 C#m C                    
One foot leads to another
 E Emaj7 
Night's for sleep, blue curtains, covers
 D Dm 
Sequins in the eyes
 A 
That's a fine time to dine
 Edim E 
Divine who's circling, feeding the cards to the midwives
 B7 E 
Who love those alien days
     B7 E 
The nonstop alien days
 B7 E 
Mmm the alien days

 E E B7 E E7 
Must've skipped the ship and joined the team for a ride
 C D7 G#7sus4 
A couple hours to learn the controls and commandeer both my eyes (hey!)
 C#m C          
Be quick dear, times are uncertain
 E Emaj7 
One month crawling, next year blurring
 D Dm 
Decades in the drain
 A 
Monograms on the brain
 Edim E 
Decide what's working and what's moved on to the last phase
     B7 E 
The floodgate alien days
   B7 E 
I love those alien days
 B7 E 
Mmm the alien days

 E F G C 
When the peels are down it feels like traveling in style
 F G A 
You don't need wings to hover forty ton stones for a mile
     Dm 
And in the summer, virgin visions
 D6                                                 
Mindless humming numbers can't 
 F G                  C7#9b5
decide if the day's supposed to smile

 E B7 E B7 A  Edim7 
 G#7sus4 G#7 C#m C E B7 E E7 
Today find infinite ways it could be plenty worse
 C D7 
It's a blessing but it's also a curse

 D7 F G C 
Those days taught me everything I know
 F G A 
How to catch a feeling and when to let it go
 Dm 
How all the scheming, soulless creatures
 D 
Can't find dreamer's honey in the hive
 F G                  C7#9b5
If it's right beneath the nose

 F G C 
And when the light is new the sky shows trembling cartoons
 F G A 
You don't need smoke to cover most of the world in a gloom
 Dm 
But here comes racer number seven
 D6 
Watch my fingers ripping out the lines
 F G                    C7#9b5
If it looks like we could lose
 F G                    C7#9b5
If it looks like we could lose
 F G                    C7#9b5
If it looks like we could lose
 F G                    C7#9b5
If it looks like we could lose

 F G  C7#9b5

You Are There Chords – Mercy Me

 D9 A9 
You have searched me and You know me
 D9 A9 
Familiar with all my ways
 D9 A9 
You have laid Your hand upon me
 D9 A9 
Such knowledge I can’t attain
 D9 A9 
Where can I go from Your spirit
 D9 A9 
Where can I flee from Your presence
 D9 A9 
If I make my bed, in the depths
 D9 A9 
If I go up to the heavens
           Bm 
You are there 
                      E 
And If I rise on the wings on the dawn
      A9 A9/Ab Fm 
If I settle on the far side of the sea
 Bm E 
Even there, Your hand will hold me fast
      A9 A9/Ab Fm 
Even there Your hand  - will guide me
            Bm 
You are there
 E 
You are there     Ohhhhh  Yeah.


            A9 E D D9 D 
And I will sing,  sing a new song, cause You love me
            A9 E D D9 D 
And I will sing,  sing a new song, cause You care
            A9 E D D9 D 
And I will sing,  sing a new song,    cause Your there 

The Greatest Bastard Tabs by Damien Rice

 Hey guys! Thirty here! Yes, I've written the "chords" for this song, but I'm definitely
sure that some, if not all of you, are looking for TABS!

Well, good news! I've been writing up a tab for this song for a LONG time, and finally
finished! :)

Yes, I did this from looking at Youtube videos, and I KNOW it's 100% correct!
I pretty much translated it (from listening to this video of his)
http://www.youtube.com/watch?v=jJ6wktoAWeo

Here's me playing the song - albiet VERY sloppily, and a little 'wrong'. Don't worry, I
worked out the kinks and posted the correct tab below:


I also submitted the CORRECT lyrics, on AZlyrics. Without posting a link (Don't want any
advertisement trouble haha! Here are the lyrics)

I made you laugh, I made you cry
I made you open up your eyes
Didn't I?

I helped you open out your wings,
your legs, and many other things
Didn't I?

Am I the greatest bastard that you know?
The only one who let you go?
The one you hurt so much you cannot bear?

Well we were good, when we were good
When we were not misunderstood

You helped me love, you helped me live
You helped me learn how to forgive
Didn't you?

I wish that I could say the same
But when you left, you left the blame
Didn't you?

Am I the greatest bastard that you met?
The only one you can't forget?
Am I the one your truth's been waiting for?

Or am I just dreaming once again?
Some dreams are better when they end

Some make it, mistake it
Some force and some will fake it
I never meant to let you down
Some fret it, forget it
Some ruin and some regret it
I never meant to let you down

We learn to wag and tuck our tails
We learn to win and then to fail
Didn't we?

We learn that lovers love to sing
And that losers love to cling
Didn't we?

Am I the greatest bastard that you know?
When will we learn to let this go?
We fought so much, we've broken all the charm

But letting go is not the same
As pushing someone else away

So please don't let on
You don't know me
Please don't let on
I'm not here
Please don't let on
You don't love me
'Cause I know you do
I know

That some make it, mistake it
Some force and some will fake it
I never meant to let you down
Some fret it, forget it
Some ruin and some regret it
I never meant to let you down
I never meant to let you
I never meant to let you down
I never meant


Here we go:

Standard tuning (Or if you're on a full step down, capo on 2nd fret)



Intro:
-------------------------------------------------------------|
-------3-----3-----3-------3----3----3-------3-----3----3----|
-----2-----2-------------2----2------------0-----0-----------|
---0-----0-------0-------------------------------------------|
-------------------------------------------------------------|
-----------------------2-----2----2------3-----3------3------|

--------------------------------------------------------------|
-----3-----3---2s3--------------------------------------------|
---2-----2----------------------------------------------------|
--------------------------------------------------------------|
-0-----0------------------------------------------------------|
--------------------------------------------------------------|

--------------0------------------2----------------------------|
-------3--------3---------3---------3-------3-----3----3------|
-----2------2----------2------2-----------0-----0-------------|
---0------0---------------------------------------------------|
--------------------------------------------------------------|
---------------------2-----2------------3-----3------3--------|

--------------------------------------------------------------|
-----3-----3---2s3--------------------------------------------|
---2-----2----------------------------------------------------|
------------------------------------------------------------

Proud Of You Chords – Fiona Fung V3

 Intro :  B F# G#m D#m E B C#m F# B F# 
Love in your eyes
            G#m D#m 
Sitting silent by my side
            E B 
Going on, holding hands
                C#m F# 
Walking through the nights
                B F# 
Hold me up, hold me tight
              G#m D#m 
Lift me up to touch the sky
                  E B 
Teaching me to love with heart
               C#m F# 
Helping me open my mind

Chorus:
         B 
I can fly
            F# G#m 
I'm proud that I can fly
          D#m E 
To give the best of mine
         B C#m 
Till the end of the time
  F# B 
Believe me, I can fly
             F# G#m 
I'm proud that I can fly
         D#m E 
To give the best of mine
          F# B 
The heaven in the sky

(verse 2 the same as verse 1)

Stars in the sky
Wishing once upon a time
Give me love, make me smile
Till the end of life
Hold me up, hold me tight
Lift me up to touch the sky
Teaching me to love with heart
Helping me open my mind

I can fly
I'm proud that I can fly
To give the best of mine
Till the end of the time
Believe me, I can fly
I'm proud that I can fly
To give the best of mine
The heaven in the sky

(instrument)

 E F# B G#m 
Can't you believe that you light up my way?
                   E F# 
No matter how that ease my path, I'll never lose my faith

            B 
See me fly
            F# G#m 
I'm proud that I can fly
          D#m E 
To give the best of mine
         B C#m 
Till the end of the time
  F# B 
Believe me, I can fly
             F# G#m 
I'm proud that I can fly
         D#m E 
To give the best of mine
          F# B 
The heaven in the sky
 C#m F# 
Nothing can stop me
 E F# B F# G#m E F# B 
Spread my wings ... so wide 

Where I Found You One Star Chords – Candy Claws

 A 
Spectacular sky
Shooting stars
            E   
Immeasurable wings
                     D 
We could not look away 
To see the other see 

 E D 
Crackle of volcano, lava flow
Ash-cloud lightning flash 
 C F E 
We were so far from home 

 A 
Bright colored sail on land
How many times wide-eyed
 E D 
Did we hide, climbing high as a sound
Like thunder made everything 

 E 
Tremble 
                         D 
I held your moss-covered stone 
And the sun disappeared
 C 
As I watched you return 
          F E A 
From the rising water’s edge