Tag: with

Adventure Time – Come Along With Me piano chords

[Verse 1]
A        D    G      D
   Come along with me
                         G
And the butterflies and bees
          Bm           G
We can wander through the forest
       D             A
And do so as we please
      D    G      D
Come along with me
                    G
To a cliff under a tree
             Bm           G
Where we can gaze upon the water
          A        D
As an everlasting dream

[Chorus]
F#7            G
All of my collections
          A              D
I'll share them all with you
F#7           G
Maybe by next summer
  D                      A
We won't have changed our tunes

[Verse 2]
         D    G   Bm
I still want to be
                          G
With the butterflies and bees
       Em            G
Making up new numbers
              A      D
And living so merrily

[Chorus]
F#7          G
All of my collections
                          D
I'll share them all with you
  F#7                  G
I'll be here for you always
      E          A
And always be with you

[Outro]
    D      G    D
Come along with me
                        G
And the butterflies and bees
        Bm               G
We can wander through the forest
            A       G
And do so as we please
            A    D
Living so merrily

Promises chords by Calvin Harris with Sam Smith feat. Jessie Reyez

[Verse 1: Sam Smith]
        F
Are you drunk enough?
                      G
Not to judge what I'm doin'€™
        F
Are you high enough?
                   G
To excuse that I'm ruined
           G
'Cause I'€™m ruined
      F
Is it late enough?
                         G
For you to come and stay over
            F
Cause we're free to love
             G
So tease me, hmmm

[Chorus: Sam Smith & Jessie Reyez]
F
I make no promises, I can't do golden rings
G
But I'll give you everything (tonight)
F
Magic is in the air, there ain't no science here
G
So come get your everything (tonight)
F
I make no promises, I can't do golden rings
G
But I'll give you everything (tonight)
F
Magic is in the air, there ain't no science here
G
So come get your everything (tonight)

[Post-Chorus: Sam Smith & Jessie Reyez]
F
Tonight
                                      G
(ha-ha-ha, ha-ha-ha your everything tonight)

[Verse 2: Sam Smith]
      F
Is it loud enough?
                  G
'€™Cause my body is calling for you, calling for you
  F                                     G
I need someone, to do the things that I do, hmmm
    F                           G
I'€™m heating up, energy's taking control (oh, oooh)
    F                                   G
I'€™m speeding up my heartbeat's dancing alone

[Chorus: Sam Smith & Jessie Reyez]
F
I make no promises, I can't do golden rings
G
But I'll give you everything (tonight)
F
Magic is in the air, there ain't no science here
G
So come get your everything (tonight)
F
I make no promises, I can't do golden rings
G
But I'll give you everything (tonight)
F
Magic is in the air, there ain't no science here
G
So come get your everything (tonight)

[Post-Chorus: Sam Smith & Jessie Reyez]
F
Tonight
                                      G
(ha-ha-ha, ha-ha-ha your everything tonight)

[Bridge: Sam Smith]
         F
'Cause I need your green light
G
Day and night, say that you're mine
         F
'Cause I need your green light
G                                   F G
Day and night, say that you're mine
F                    G F G
Say that you're mine
F
Say that you're mine

[Chorus: Sam Smith & Jessie Reyez]
F
I make no promises, I can't do golden rings
G
But I'll give you everything (tonight)
F
Magic is in the air, there ain't no science here
G
So come get your everything (tonight)
F
I make no promises, I can't do golden rings
G
But I'll give you everything (tonight)
F
Magic is in the air, there ain't no science here
G
So come get your everything (tonight)

[Post-Chorus: Sam Smith]
F
Tonight

Stay With Me chords by Sam Smith

[Opening]

Am7  F  C

Am7  F  C

[Verse 1]

Am7                      F               C

Guess it’s true, I’m not good at a one-night stand

Am7               F                     C

But I still need love cause I’m just a man

Am7                F             C

These nights never seem to go to plan

Am7                  Gsus                    C

I don’t want you to leave, will you hold my hand?

[Chorus]

         Am   F     C

Won’t you stay with me?

           Am   F  C

Cause you’re all I need

G          Am        F            C

This ain’t love it’s clear to see

      G#dim Am   F    C

But darling, stay with me

Am7           F    C       

       Why am I so emotional?

Am7                F                      C

No it’s not a good look, gain some self control

Am7              F               C

And deep down I know this never works

Am7                  Gsus            C

But you can lay with me so it doesn’t hurt

[Chorus]

         Am   F     C

Won’t you stay with me?

           Am   F  C

Cause you’re all I need

G          Am        F            C

This ain’t love it’s clear to see

      G#dim Am   F    C

But darling, stay with me

[Bridge]

                 Am     F    C

Oh….

                  Am  F   C

Oh…

G             Am        F            C

Oh…

         G#dim Am   F    C

Oh…

[Chorus]

         Am   F     C

Won’t you stay with me?

           Am   F  C

Cause you’re all I need

G          Am        F            C

This ain’t love it’s clear to see

      G#dim Am   F    C

But darling, stay with me

             Am   F     C

Oh, won’t you stay with me?

           Am   F  C

Cause you’re all I need

G          Am        F            C

This ain’t love it’s clear to see

      G#dim Am   F    C

But darling, stay with me

Love With Your Heart chords – The Everly Brothers

 Love With Your Heart:The Everly Brothers.
Album - Susie Q - on WARNER Records in
1968.

INTRO:  E 

#1.
 E 
I can't believe it's true, to love me you're 

the fool.
                      A E 
If you really think about it, you don't know me.
 E A E A E 
I'll never understand, how one touch of your hand,
     A E D E A E 
can make me feel the truth in what you've told me.

BRIDGE:
   B E 
I can't belong to you, it's too soon to be true.
         A E D 
To find real love I've searched for years, but 
 E 
hold me.


INTERLUDE:  E 

CHORUS:
 A B E 
Love with your heart and you'll be happy.
 Em D A 
Love with your mind and you'll get by.


INTERLUDE:  E 

#2.
 E 
I need to be with you, you say you want me, too.

But in my heart I can't believe you love me.
 E B E 
I'll do it anyway, I'll give my love and stay.
            A E A 
And think about the consequence tomorrow.

#3.
    Bm B E 
It happened once before, I found love but I gave 

more.
 E D E 
One day I opened up my eyes..she owned me.

CHORUS:
 A B E 
Love with your heart and you'll be happy.
 Em D A 
Love with your mind and you'll get by.

OUTRO:
 E 
Loooooooooooooove, looooooooooooove..(Fade.)



A sixties smash from Kraziekhat.

If Im James Dean Youre Audrey Hepburn chords – Sleeping With Sirens Vsion 5

 This is not the acoustic version of the song. 
The song doesn't use a capo but if your voice is deeper than Kellin's, then it's capo 1
For strumming pattern: https://www.youtube.com/watch?v=FZlcV1m-zis. He plays the chords a bit differently but
 the strumming pattern is similar. Change the pattern for the second verse to match the first, if you want.
It might not be 100% accurate but it still sounds similar.

Standard Tuning

Intro:
 Gm Gm 
Stay for tonight
If you want to
I can show you
          E 
What my dreams are made of,
         F# 
As I'm dreaming of your face
            Gm 
I've been away for a long time
Such a long time
                      E 
And I miss you there
                                     F# 
I can't imagine being anywhere else
I can't imagine being anywhere else but here

 Gm Gm 
How the hell did you ever pick me?
                                E 
Honestly, I could sing you a song
                                          F# 
But I don't think words can express your beauty
                  Gm 
It's singing to me

How the hell did we end up like this?
                            E 
You bring out the beast in me
                                   F# 
I fell in love from the moment we kissed
                             Gm 
Since then we've been history

 Gm E E F# 
They say that love is forever
                            Gm 
Your forever is all that I need
        B E 
Please stay as long as you need
                                     F# 
Can't promise that things won't be broken
                               Gm 
But I swear that I will never leave
        B E 
Please stay forever with me

 Gm Gm E 
It goes to show, I hope that you know that you are
What my dreams are made of
 Gm 
Can't fall asleep, can't fall asleep
                                           E 
I lay in my bed awake, in my bed awake at night
As I dream of you
 Gm 
I'll fall in love, you'll fall in love
                                         E 
It could mean everything, everything to me
I can't imagine being anywhere else

 E F# 
They say that love is forever
                            Gm 
Your forever is all that I need
        B E 
Please stay as long as you need
                                     F# 
Can't promise that things won't be broken
                               Gm 
But I swear that I will never leave
        B E 
Please stay forever with me

 E                  
The way that we are
        F# 
Is the reason I stay
    Gm 
As long as you're here with me
   B 
I know I'll be OK

 E                  
The way that we are
        F# 
Is the reason I stay
    Gm 
As long as you're here with me
   B 
I know I'll be OK

 E F# 
They say that love is forever
                            Gm 
Your forever is all that I need
        B E 
Please stay as long as you need
                                     F# 
Can't promise that things won't be broken
                               Gm 
But I swear that I will never leave
        B E 
Please stay forever with me

 E F# 
They say that love is forever
                            Gm 
Your forever is all that I need
        B E 
Please stay as long as you nee

Well Be Okay Tabs – With Confidence

 With Confidence
   We'll Be Okay

By: AJ Booker

Guitar 1: Luke
Guitar 2: Ini

VERSE:
Guitar 1 and 2:
e|-----------------------------|
B|-----------------------------|
G|--7-7---4-4---2-2------------|
D|--7-7---4-4---2-2---5-5-555--|
A|--5-5---2-2---0-0---5-5-555--|
E|--------------------3-3-333--| x3

e|---------------------|
B|---------------------|
G|--7-7---4-4---2------|
D|--7-7---4-4---2-hold-|
A|--5-5---2-2---0------|
E|---------------------|

e|-----------------------------|
B|-----------------------------|
G|--7-7---4-4---2-2------------|
D|--7-7---4-4---2-2---5-5-555--|
A|--5-5---2-2---0-0---5-5-555--|
E|--------------------3-3-333--| x4


Over the second and last time repeated, Guitar 2 plays:
e|---------------------------------------------|
B|-----15-14-10--------------15-14-10----------|
G|---14----------16-14-----14------------------|
D|-12----------12--------12----------12-14-12--|
A|---------------------------------------------|
E|---------------------------------------------|


PRECHORUS:
Guitar 1 only
e|------------|
B|------------|
G|-6/7-7-6-7--|
D|-6/7-7-6-7--|
A|-4/5-5-4-5--|
E|------------| x3

CHORUS:
Guitar 1 and 2:
e|--------------------------------------|
B|--------------------------------------|
G|-77777777-44444444----------22222222--|
D|-77777777-44444444-55555555-22222222--|
A|-55555555-22222222-55555555-00000000--|
E|-------------------33333333-----------| x2

2ND VERSE (intro):
Guitar 1:
e|--------------------------------------------------|
B|--------------------------------------------------|
G|--7-7---4-4---2-2--------------7-7---4-4---2------|
D|--7-7---4-4---2-2---5-5-555----7-7---4-4---2-hold-|
A|--5-5---2-2---0-0---5-5-555----5-5---2-2---0------|
E|--------------------3-3-333-----------------------|

Guitar 2:
e|---------------------------------------------|
B|-----15-14-10--------------15-14-10----------|
G|---14----------16-14-----14------------------|
D|-12----------12--------12----------12-14-12--|
A|---------------------------------------------|
E|---------------------------------------------|

I'm not too sure what the play during the actual verse, but I just play the
chords from the intro but palm muted and 4 times on each like:
e|----------------------|
B|----------------------|
G|-7777-4444-2222-------|
D|-7777-4444-2222-5555--|
A|-5555-2222-0000-5555--|
E|----------------3333--| x2
   **** **** **** ****

PRECHORUS:
Guitar 1 only
e|-------****---------****---------****-----------------------|
B|-------****---------****---------****-----------------------|
G|-6/7-7-****---6/7-7-****---6/7-7-****--7--------------------|
D|-6/7-7-****---6/7-7-****---6/7-7-****--7--------------------|
A|-4/5-5-****---4/5-5-****---4/5-5-****--5-hold---------------|
E|-------****---------****---------****----------*pickslide*--|

CHORUS:
Guitar 1 and 2:
e|--------------------------------------|
B|--------------------------------------|
G|-77777777-44444444----------22222222--|
D|-77777777-44444444-55555555-22222222--|
A|-55555555-22222222-55555555-00000000--|
E|-------------------33333333-----------| x2

BRIDGE:
Guitar 1 and 2:
e|------------------------------------------------|
B|------------------------------------------------|
G|-7-4-7-----7-4-7-6---7-4-7-----7-4-7-6--7777777-|
D|-7-4-7-----7-4-7-6---7-4-7-----7-4-7-6--7777777-|
A|-5-2-5-----5-2-5-4---5-2-5-----5-2-5-4--5555555-|
E|------------------------------------------------|
                                          *******


CHORUS:
Guitar 1 and 2:
e|----------------------------------------------------------------------------|
B|----------------------------------------------------------------------------|
G|-7-7-4-4--44444444----------22222222--77777777-44444444----------22222222---|
D|-7-7-4-4--44444444-55555555-22222222--77777777-44444444-55555555-22222222---|
A|-5-5-2-2--22222222-55555555-00000000--55555555-22222222-55555555-00000000---|
E|-------------------33333333------------------------------33333333-----------|

OUTTRO:
Guita

There Is A Fountain Filled With Blood chords – Norton Hall Band

 There Is A Fountain

Verse 1
       G C G D 
There is a fountain filled with blood drawn from Immanuel's vein
     Em C G D G 
And sinners plunged beneath that flood lose all their guilty stains
      G C G D 
Lose all their guilty stains lose all their guilty stains
     Em C G D G 
And sinners plunged beneath that flood lose all their guilty stains

Verse 2
     G C G D 
The dying thief rejoiced to see that fountain in his day
     Em C G D G 
And there have I, though vile as he, washed all my sins away
        G C G D 
Washed all my sins away, washed all my sins away 
     Em C G D G 
And there have I, though vile as he, washed all my sins away
 
Verse 3
      G C G D 
Dear dying Lamb, thy precious blood shall never lose its power 
      Em C G D G 
Till all the ransomed church of God be saved, to sin no more 
    G C G D 
Be saved, to sin no more, be saved, to sin no more 
      Em C G D G 
Till all the ransomed church of God be saved, to sin no more

Verse 4
      G C G D 
E'er since, by faith, I saw the stream thy flowing wounds supply 
   Em C G D G 
Redeeming love has been my theme, and shall be till I die 
     G C G D 
And shall be till I die, and shall be till I die 
   Em C G D G 
Redeeming love has been my theme, and shall be till I die

Verse 5
      G C G D 
When this poor lisping stamm’ring tongue lies silent in the grave
      Em C G D G 
Then in a nobler sweeter song I’ll sing Thy pow’r to save
      G C G D 
I’ll sing Thy pow’r to save, I’ll sing Thy pow’r to save
      Em C G D G 
Then in a nobler, sweeter song, I’ll sing Thy pow’r to save

Dont Threaten Me With A Good Time solo Tabs – Panic! At The Disco Vsion 2

 -------------------------------------------------------------------------------
               DON'T THREATEN ME WITH A GOOD TIME - Panic! At the Disco
-------------------------------------------------------------------------------
: thanic
 ethanrocketman2
Note:  so it might not be 10/10...
Tuning: Standard

Intro riff. 

e|---------------------------------------------------------------------------|
B|---------------------------------------------------------------------------|
G|----------------------6----------------------------------------------------|
D|--------------7676-6------7----------7676--------------------------7676-6--|
A|-----6-76---------------------76--------------------------6-76-------------|
E|--9--------9-----------------------9-------------------9--------9----------|

Rest of the parts with riff.

e|---------------------------------------------------------------------------|
B|---------------------------------------------------------------------------|
G|---------------------------------------------------------------------------|
D|--------------7676-6--------------7676-----------------------------------------|
A|------7-76--------------6-76-----------------------------------------------|
E|--9--------9---------9---------9------------------------------------------|

Come Live With Me chords – Roy Clark

 G C 
Come live with me and be my love share my bread and wine

    G D7 G 
Be wife to me be life to me be mine

                                                   C 
Come live with me and be my love let our dreams combine

    G D7 G 
Be mate to me be fate to me be mine

 
 C G 
With these hands I'll build a roof to shield your head

 C G D7 
And with these hands I'll carve the wood for a baby bed

      G C 
Come live with me and be my love  share my bread and wine

    G D7 G 
Be part of me be the heart of me be mine

 
 C G 
I'll try to do my best for you I promise you

 C G D7 
I'll laugh with you and I'll cry with you my whole life through

      G C 
Come live with me and won't you be my love share my bread and wine

    G D7 G 
Be part of me be the heart of me be mine

Beautiful With You chords – Halestorm Vsion 3

 Intro(rythym):   D A D A        

E||-----------------------|----------------------||
B||--9--9--9--10----------|--12-12-12-10----9----||
G||----------------9------|----------------------||
D||-----------------------|----------------------||
A||-----------------------|----------------------||
E||-----------------------|----------------------||

Verse 1:
 D A 
    I stare at the girl in the mirror
 D A 
T-shirt, torn up jeans, no beauty queen
 F#m 
   But the way that you see me
                       E 
You get underneath me
                                   D 
And all my defences just fall away
Fall away

Chorus:         
 F#m A E 
   I am beautiful with you
                    D         
Even in the darkest part of me
 F#m A E 
   I am beautiful with you
                          D          
Make it feel the way it's supposed to be
 G#m F#m 
  You're here with me
         A E 
Just show me this and I'll believe
 F#m A E 
I am beautiful with you

Verse 2:
 D A 
  I stand naked before you now
 D A 
  No walls to hide behind, so here am I
 F#m A 
   You see all of my scars
                E 
Still here you are
                                    D 
I bare my soul and I'm not afraid
Not afraid

Bridge:  D F/G# Bm D 
Palm mute
       D G#m 
I've been the strong one for so long
      Bm 
But I was wrong
 D 
It doesn't make you weak if you're needing someone
 D 
I'm not holding back and I know what I want

bridge:

e------------------------------------------------------||
B--9-------9-------10-------10-------12-------12-------||
G------9-------9--------9--------9--------9--------9---||
D------------------------------------------------------||
A------------------------------------------------------||
E------------------------------------------------------||



 F#m A E A E 
I am beautiful with you
 F#m A E A E 
I am beautiful with you
 D F#m 
You want me for myself
 E 
You get me like no one else
 F#m A E F#m 
I am beautiful with you 
With you

CHORUS

Welcome Madmen With Guns chords – Dan Bern

 Standard tuning, just listen to the song to get the strumming pattern down.

        Em C 
On the TV,someone’s running
        G D 
As the helicopter cam zooms in
          Em C 
And they superimpose green arrows
        G D 
Google Earth it to the head of a pin
          Em C 
She says “There behind the police tape
          G D 
“Seen it all with my eyes and ears
        Em C 
“I was talking to my friend Charlie
           D Em 
“And then Charlie disappeared”


 Em C 
Welcome, welcome
 G D 
Come and have some fun
        Em C G D 
We got every Chinese toy under the sun
     Em C 
And every Ponzi scheme
      G D 
That ever has been run
     Em C 
And old men with hard-ons
     D Em 
And Madmen with guns


       Em C G D 
And I heard that you made threats against me and my family
       Em C G D 
And I got me a gun from a kindly neighbor lady
     Em C G D 
And I made it known that one step in the wrong direction
       Em C G D 
I’ll shoot you in the back with no hesitation


 Em C 
Welcome, welcome
 G D 
Come and have some fun
        Em C G D 
We got every Chinese toy under the sun
     Em C 
And every Ponzi scheme
      G D 
That ever has been run
     Em C 
And old men with hard-ons
     D Em 
And Madmen with guns


     C 
And who’s doing who
And where’s the fire
     G D 
And who do you think is juicin
         C 
And the rats and the zombies and the alien pigs
       G D 
Which field should we turn you loose in
 Em C 
Monkeys in captivity
 G C 
Ikea in the Amazon
 Em C 
What’s in your wallet
     D Em 
And which side are you on?


 Em C 
Can anyone still stand up
           G D 
Or are we all just too ground down
 Em C G D 
Tryin’ to make it through the day without your ass gettin’ handed back to you in town
 Em C G D 
Sitting on the freeways and the buses and the trains
 Em C G D 
Praying you can get the kids inside before it rains


 Em C 
Welcome, welcome
 G D 
Come and have some fun
        Em C G D 
We got every Chinese toy under the sun
     Em C 
And every Ponzi scheme
      G D 
That ever has been run
     Em C 
And old men with hard-ons
     D Em 
And Madmen with guns


 Em C 
Stadiums, palladiums
 G D 
Prisons second to none
     Em C 
And old men with hard-ons
     D Em 
And Madmen with guns



Once More With Feeling chords – Glen Campbell

 Once More With Feeling
Glen Campbell
written by Shirley Nelson

Intro   E A E A E 

Verse 1

      E A E A F#m A F#m 
Sometimes myself runs back to you.
 F#m7 B B7 E A E 
I just can't tell me what to do.
         E7 E A 
Cause I remember when, 
              F#m F#m7 
how right it felt within
     B B7 E 
the shelter of your arms where I would stay.

Chorus 1

           E7 A B 
Once more with feeling.
      B7 A E A B7 
once more with feeling.
           E D F#m F#m7 A B B7 
Won't you hold me   till the night turns into day.

Verse 2

 E E7 E A 
I still remember when. 
                F#m A 
All wrapped up tight within
        B7 A B7 E A F Bb F 
the shelter of your arms where I would stay.

Verse 3

              F7 F Bb Gm 
Sometimes I let me get this blue. 
              C F Bb 
Sometimes my old destroys my new.
 F F7 F Bb 
But I remember when. 

Pre-chorus
                Gm 
All wrapped up tight within
     C7 Gm C7 F Bb F 
the shelter of your arms I used to say.

Chorus 2

      F7 Bb 
Once more with feeling.
 Gm C7 Bb F Gm C7   
Once more with feeling.
           F F7 D D7 Gm F C7 F 
Won't you hold me till the night turns into day.

Pre-Chorus

         F7 F Bb 
I still remember when.
                Gm     
All wrapped up tight within
     C7 F Bb F 
the shelter of your arms I used to sayyyy.

Outro

      F7 Bb Gm 
Once more with feeling.
      C7 Bb F Gm C7 
Once more with feeling.
           F D D7 Gm 
Won't you hold me till the night turns into day.  (fade quickly)

flyinglibra51
God Bless Glen Travis Campbell

Anywhere Is Home When Youre With Me chords – Rhonda Vincent

 G C G 
I spent some time in the hills of old Kentucky

      D7 G 
I've travelled south on down to Tennessee

                        C G 
I thought I found true love in Carolina

       D7 G 
But I woke up next day in misery


     C G 
I'm going back to you cause you're the one I love

 A7 D7 
Next to you is where I wanna be

 G C G 
We'll travel all around this whole wide country

       D7 G 
Cause anywhere is home when you're with me


                    C G 
I went to see some friends in old Virginia

     D7 G 
Ate loads of barbeque in Alabam

                   C G 
I played a lot of bluegrass down in Georgia

   D7 G 
I wound up lonesome in Louisianne


     C G 
I'm going back to you cause you're the one I love

 A7 D7 
Next to you is where I wanna be

 G C G 
We'll travel all around this whole wide country

       D7 G 
Cause anywhere is home when you're with me


     C G 
I'm going back to you cause you're the one I love

 A7 D7 
Together we will sing sweet harmony

 G C G 
We'll travel all around this whole wide country

       D7 G 
Cause anywhere is home when you're with me

       D7 C G 
Cause anywhere is home when you're with me

Murdera Tabs – Sublime With Rome V2

 Chords: Cm Bb

e|--------------------------------------------------------------------------------|
B|--------------------------------------------------------------------------------|
G|--------------------------------------------------------------------------------|
D|-10--10-10-10----------8-----10-10-10-10----------8-----10--10-10-10----------8-|
A|--------------8--8--10-------------------8--8--10--------------------8--8--10---|
E|--------------------------------------------------------------------------------|

e|--------------------------------------------------------------------------------|
B|--------------------------------------------------------------------------------|
G|--10-10-10--8-8-8--7-7-7-----------------------------------------------------7--|
D|-------------------------8-10---8--8-----8-------------------8---8--10--8--10---|
A|-------------------------------------10-----10-10-8----8-8-10-------------------|
E|--------------------------------------------------------------------------------|

e|--------------------------------------------------------------------------------|
B|--------------------------------------------------------------------------------|
G|--------------------------------------------------------------------------------|
D|----------8---------------------------------------------------------------------|
A|-8-8-8-10---10-8-10-------------------------------------------------------------|
E|--------------------------------------------------------------------------------|

: BrownSquad

I Died With You Tabs – Hotel Books

 : jcameronp
Tuning: Drop D

--

Intro / Verse 1

Guitar 1:

e|------5-------5------4------4---------------0---------------0--------------|
B|---------------------------------------------------------------------------|
G|------------------------------------2-------------2------------------------|
D|-4-6----4-6----2-6-----2-6-----0-6----0-6-----0-6-----0-6------------------|
A|---------------------------------------------------------------------------|
D|---------------------------------------------------------------------------|

                                                                                     repeated throughout
                                                                                     verse
e|------5------5---------------------2-------2-------2---------2-------------|
B|---------------------------------------------------------------------------|
G|---------------------2-----2-----------------------------------------------|
D|-4-6----4-6-----0-6----0-6----0-6----0-6------0-6------0-6-----------------|
A|---------------------------------------------------------------------------|
D|---------------------------------------------------------------------------|

Guitar 2:

e|---------------------------------------------------------------------------|
B|---------------------------------------------------------------------------|
G|-9~-----8~-----6~-----8~-----9~-----8~-----9~------------------------------|
D|-7~-----6~-----4~-----6~-----7~-----6~-----7~------------------------------|
A|-7~-----6~-----4~-----6~-----7~-----6~-----7~------------------------------|
D|-7~-----6~-----4~-----6~-----7~-----6~-------------------------------------|

Guitar 1 keeps playing intro 

Guitar 2:

e|-5/9--9/7--7/4--4h5p4--2/12-12--5------------------------------------------|
B|---------------------------------------------------------------------------|
G|---------------------------------------------------------------------------| x2
D|---------------------------------------------------------------------------|
A|---------------------------------------------------------------------------|
D|---------------------------------------------------------------------------|

--

Chorus

Guitar 1:

e|-5-5-5-5-5-----------------------------------------------------------------|
B|---------------------------------------------------------------------------|
G|---------------------------------------------------------------------------| x1
D|---------------------------------------------------------------------------|
A|---------------------------------------------------------------------------|
D|---------------------------------------------------------------------------|

then pick each note over and over

e|-5---9---7---12---5---7---4---7--------------------------------------------|
B|---------------------------------------------------------------------------|
G|---------------------------------------------------------------------------| x2
D|---------------------------------------------------------------------------|
A|---------------------------------------------------------------------------|
D|---------------------------------------------------------------------------|

then

e|-5/9--9/7--7/4--4h5p4--2/12-12--5------------------------------------------|
B|---------------------------------------------------------------------------|
G|---------------------------------------------------------------------------| x2
D|---------------------------------------------------------------------------|
A|---------------------------------------------------------------------------|
D|---------------------------------------------------------------------------|

Guitar 2: (strum each chord)

e|---------------------------------------------------------------------------|
B|---------------------------------------------------------------------------|
G|-------9-----------9-----------9-----------9-------------------------------| x4
D|-

Stay With Me Chords – Sam Smith

[Opening]
Am7  F  C
Am7  F  C

[Verse 1]
Am7                      F               C
Guess it's true, I'm not good at a one-night stand
Am7               F                     C
But I still need love cause I'm just a man
Am7                F             C
These nights never seem to go to plan
Am7                  G5/F                    C
I don't want you to leave, will you hold my hand?

[Chorus]
         Am   F     C
Won't you stay with me?
           Am   F  C
Cause you're all I need
G          Am        F            C
This ain't love it's clear to see
      G#dim Am   F    C
But darling, stay with me

Am7           F    C       
       Why am I so emotional?
Am7                F                      C
No it's not a good look, gain some self control
Am7              F               C
And deep down I know this never works
Am7                  G5/F             C
But you can lay with me so it doesn't hurt

[Chorus]
         Am   F     C
Won't you stay with me?
           Am   F  C
Cause you're all I need
G          Am        F            C
This ain't love it's clear to see
      G#dim Am   F    C
But darling, stay with me

[Bridge] (Same timing as the chorus)
                 Am     F    C
Oh....
                  Am  F   C
Oh...
G             Am        F            C
Oh...
         G#dim Am   F    C
Oh...

[Chorus]
         Am   F     C
Won't you stay with me?
           Am   F  C
Cause you're all I need
G          Am        F            C
This ain't love it's clear to see
      G#dim Am   F    C
But darling, stay with me

             Am   F     C
Oh, won't you stay with me?
           Am   F  C
Cause you're all I need
G          Am        F            C
This ain't love it's clear to see
      G#dim Am   F    C
But darling, stay with me

Im In Love With The Coco Acoustic chords – Ed Sheeran

 Ed Sheeran
I'm In Love With The CoCo (OT Genesis cover)

This is a performance from BBC Radio 1Xtra and can be seen in the following video:


It's pretty easy to play this acoustic version. You just have to find the right rhythm. 3 Chords are used
throughout the whole song ( Em C D ), although you can use them a bit differently to change up the song a
little bit ( Em7 C7 D ) or ( Em9 C9 D ). Please be kind with your rating as this is my first Tab. Enjoy!! :D


Capo 3

 Em C Em C D 

(Hook)

 Em C Em C 
   I'm in love with the coco
 Em C Em C 
   I'm in love with the coco
 Em C Em C 
   I got it for the low low
 Em C Em C D 
   I'm in love with the coco


 Em C Em C 
   I'm in love with the coco...



(Verse 1)

 Em C Em C 
   Hit my plug, that's my cholo
 Em C Em C 
   'Cause he got it for the low low
 Em C Em C 
   If you snitchin' I go loco
 Em C Em C   
   Hit you with that treinta ocho
 Em C Em C 
   Thinkin' that I'm solo
 Em C Em C 
   Fifty deep, they're like "oh no"
 Em C Em C 
   Heard the feds takin' photos
 Em C Em C 
   I know nothing, fuck the po' po'


(Refrain)

 Em C Em 
   Bakin' soda, I got bakin' soda
 Em C Em 
   Bakin' soda, I got bakin' soda
 Em C Em 
   Whip it through the glass nigga
 Em C Em 
   I'm blowin' money fast, nigga


(Hook)

 Em C Em C 
   I'm in love with the coco...
 
  
 Em C Em C 
   I'm in love with the coco...


(Verse 2)

 Em C Em C    
   36, That's a kilo
 Em C Em C 
   Need a brick, miss my free throw
 Em C Em C 
   I'm in love, just like Ne-Yo
 Em C Em C 
   Bustin' bustin', now he Neo
 Em C Em C 
   Free my homies, fuck the C.O.
 Em C Em C 
   Fuck the judge, fuck my P.O.
 Em C Em C 
   All this coke like I'm Nino
 Em C Em C 
   Water whip like I'm Nemo


(Refrain)

 Em C Em 
   Bakin' soda, I got bakin' soda


(Hook)

 Em C Em C 
   I'm in love with the coco...
 
  
 Em C Em C 
   I'm in love with the coco...

Fight With The Beast Tabs – Onslaught

 Intro
Fig 1 x 5
|-|--------------------------------|-|
|-|--------------p-----------------|-|
|o|2-2-2---2--3-20-2-2-2---5--5--5-|o|
|o|2-2-2---2--3-20-2-2-2---5--5--5-|o|
|-|------0---------------0---------|-|
|-|--------------------------------|-|
         .               .

whammy bar dive

Fig 2 x 4
|-|--------------------------------|-|
|-|--------------------------------|-|
|o|--------------------------------|o|
|o|------------------------5--5--5-|o|
|-|0000000000000000000000003--3--3-|-|
|-|--------------------------------|-|
   ........................

Fig 3a x 1
|-|----------------------------------------------------------------|-|
|-|----------------------------------------------------------------|-|
|o|----------------------------------------------------------------|o|
|o|777777777777777777777777777777777777777777777777----------------|o|
|-|555555555555555555555555555555555555555555555555X\\\\\\\\\\\\\\\|-|
|-|----------------------------------------------------------------|-|

Fig 2 x 2
|-|--------------------------------|-|
|-|--------------------------------|-|
|o|--------------------------------|o|
|o|------------------------5--5--5-|o|
|-|0000000000000000000000003--3--3-|-|
|-|--------------------------------|-|
   ........................

Fig 3b x 1
|-|----------------------------------------------------------------|-|
|-|----------------------------------------------------------------|-|
|o|----------------------------------------------------------------|o|
|o|7777777777777777777777777777777777777777777777775--5--5-4--4--4-|o|
|-|5555555555555555555555555555555555555555555555553--3--3-2--2--2-|-|
|-|----------------------------------------------------------------|-|

Fig 2 x 2
|-|--------------------------------|-|
|-|--------------------------------|-|
|o|--------------------------------|o|
|o|------------------------5--5--5-|o|
|-|0000000000000000000000003--3--3-|-|
|-|--------------------------------|-|
   ........................

Fig 4 x 1
|-|----------------------------------------------------------------|-|
|-|----------------------------------------------------------------|-|
|o|----------------------------------------------------------------|o|
|o|----------------------------------------------------------------|o|
|-|5555555555555555555555555555555555555555555555555555555555555555|-|
|-|3333333333333333333333333333333333333333333333333333333333333333|-|

Fig 2 x 2
|-|--------------------------------|-|
|-|--------------------------------|-|
|o|--------------------------------|o|
|o|------------------------5--5--5-|o|
|-|0000000000000000000000003--3--3-|-|
|-|--------------------------------|-|
   ........................

Fig 5 x 1
|-|----------------------------------------------------------------|-|
|-|----------------------------------------------------------------|-|
|o|----------------------------------------------------------------|o|
|o|5555555555555555777777777777777733333333333333335555555555555555|o|
|-|3333333333333333555555555555555511111111111111113333333333333333|-|
|-|----------------------------------------------------------------|-|

Fig 1 x 2
|-|--------------------------------|-|
|-|--------------p-----------------|-|
|o|2-2-2---2--3-20-2-2-2---5--5--5-|o|
|o|2-2-2---2--3-20-2-2-2---5--5--5-|o|
|-|------0---------------0---------|-|
|-|--------------------------------|-|
         .               .

Fig 1c x 1
|-|----------------------------------------------------------------|-|
|-|----------------------------------------------------------------|-|
|o|----------------------------------------------------------------|o|
|o|777777777777777777777777777777775--5--5-5--5--5-5---------------|o|
|-|555555555555555555555555555555553--3--3-3--3--3-3---------------|-|
|-|----------------------------------------------------------------|-|
                                                   *

Fig 2 x 4
|-|--------------------------------|-|
|-|--------------------------------|-|
|o|-

Dancing With A Wolf chords – All Time Low V2

 All Time Low - Dancing With A Wolf
Capo on first fret

Intro:
 C Bm Em                                      
Who's gonna listen when you run out of lies? 
 C G D  ( or  Bm  )
Who's gonna hear you, when your words seem worthless?
 Em                                       
Who's gonna save you when you're out of time?
     C G D  ( or  Bm  )
And who's gonna want you, when you're on your knees, begging:

 
 C                        
"Oh, please take me at my word, I'm desperate
 Bm                       
I swear, I never meant to hurt no one, no
 C                             
Oh, please stay for what it's worth, I'm desperate"
 D 
You're on your own

 Bm Em 
So don't you call my name
                 C    
I will take you down
           D Bm 
Should've known that you've been dancing with a wolf
                      Em       
So don't you call my name
                 C   
I will take you down
              D                                                 
I'm not your friend, you burned a bridge
            Bm                                    
I chew you up and spit you out
 Em C           
Oh woah oh
            D Bm 
There's no love for a liar, no love for a liar
 Em C     
Oh woah oh
            D Bm     
There's no love for a liar, no love
                      Em       
So don't you call my name
(Call my name)

 Em                                                                   
No one to listen when you're running your mouth
 C G D  ( or  Bm  )            
No one to hear you when your words seem worthless
 Em                          
No one to save you when you're coming down
 C Bm 
No one to want you, when you're on your knees begging:

 C 
"Oh, please take me at my word, I'm desperate
 Bm                       
I swear, I never meant to hurt no one, no
 C                             
Oh, please stay for what it's worth, I'm desperate"
 D                  
You're on your own

 Bm Em 
So don't you call my name
                 C    
I will take you down
           D Bm 
Should've known that you've been dancing with a wolf
                      Em       
So don't you call my name
                 C   
I will take you down
              D                                                 
I'm not your friend, you burned a bridge
            Bm                                    
I chew you up and spit you out
 Em C           
Oh woah oh
            D Bm 
There's no love for a liar, no love for a liar
 Em C     
Oh woah oh
            D Bm     
There's no love for a liar, no love
                      Em       
So don't you call my name                        
(Call my name)

 C Em                         
Fool me once, it's shame on you
 D                                                          
Fool me twice, and let the wolves come crashing through
 C Em             
Fool me once, it's shame on you
 D Bm                            
Fool me twice, and let the wolves come

                      Em 
So don't you call my name
                 C    
I will take you down
           <

Kick Me Tabs by Sleeping With Sirens

 -------------------------------------------------------------------------------
                             Kick Me - Sleeping With Sirens
-------------------------------------------------------------------------------
: Edwin Rodriguez ( https://www.facebook.com/SlipknotSoadlmL ) if you need help just add me on Fb

Tuning: Drop C

Guitar 1 and 2. 

Intro:

(Only guitar 1)

D|---------------------------------------------------------------------------------------------------------|
A|--14--14--14--14--15--15--15--15--15--12--12--12--12--14--14--14--14--9--9--9--9--10--10--10--10--10--7~~|
F|---------------------------------------------------------------------------------------------------------|
C|---------------------------------------------------------------------------------------------------------|
G|---------------------------------------------------------------------------------------------------------|
C|---------------------------------------------------------------------------------------------------------|





Verse 1:

(Guiar 1 and 2)

D|---------------------------------------------------------------------------|
A|----6--4--6-----6--4--6-----6--4--6----------------------------------------|
F|----4--4--4-----4--4--4-----4--4--4----------------------------------------|
C|---------------------------------------0--0--0--0--2--2--2--2--2--2--2-----|x2
G|---------------------------------------0--0--0--0--2--2--2--2--2--2--2-----|x2
C|---------------------------------------0--0--0--0--2--2--2--2--2--2--2-----|x2

D|----9-------------10-----------9-------------------------------------------|
A|----10---(12x)----10---(4x)----10---(8x)-----------------------------------|
F|----11------------11-----------11------------------------------------------|
C|---------------------------------------------------------------------------|
G|---------------------------------------------------------------------------|
C|---------------------------------------------------------------------------|





Chorus:

Guitar 1:

D|---------------------------------------------------------------------------| __
A|---------------------------------------------------------------------------|   |
F|---------------------------------------------------------------------------|   |
C|-4-4-4-4-4-4-4-0-0-0-0-0-0-0-0-7-7-7-7-7-7-7-7-2-2-2-2-2-2-2-2-------------|   |
G|-4-4-4-4-4-4-4-0-0-0-0-0-0-0-0-7-7-7-7-7-7-7-7-2-2-2-2-2-2-2-2-------------|   |
C|-4-4-4-4-4-4-4-0-0-0-0-0-0-0-0-7-7-7-7-7-7-7-7-2-2-2-2-2-2-2-2-------------|   | 
                                                                                 |> (x2)
D|---------------------------------------------------------------------------|   |
A|---------------------------------------------------------------------------|   |
F|---------------------------------------------------------------------------|   |
C|-4-4-4-4-4-4-4-4-0-0-0-0-0-0-0-0-----7----7-----3---3---3-3-3-3------------|   |
G|-4-4-4-4-4-4-4-4-0-0-0-0-0-0-0-0-----7----7-----4---4---4-4-4-4------------|   | 
C|-4-4-4-4-4-4-4-4-0-0-0-0-0-0-0-0-----7----7-----3---3---3-3-3-3------------| __

D|---------------------------------------------------------------------------|
A|---------------------------------------------------------------------------|
F|---------------------------------------------------------------------------|
C|-4---------------4-----------------4---------------------------------------|x2
G|--------------------------------------------------0--4---------------------|x2
C|---4-4---4-4-4-----4-4---4-4-4-4----4-4---4-4-4---------3------------------|x2

Guitar 2:

                            |----11's------|
D|---------------------------------------------------------------------------| __  
A|---------------------------------------------------------------------------|   |
F|-14-14-14-14-14-14-14-14--111111111111111--18-18-18-18-18-18-18-18---------|   |
C|-X--X--X--X--X--X--X--X---X-X-X-X-X-X-X-X--X--X--X--X--X--X--X--