Tag: word

One Last Word chords – Greg Rekus

 Greg Rekus - acoustic punk from Canada !

http://gregrekus.com/
https://www.facebook.com/gregrekusmusic
https://www.youtube.com/user/gregrekus

https://twitter.com/gregrekus
https://greg-rekus.bandcamp.com/



Intro :  Db Db B#m B#sus2 B#m 
One last word and I'll turn to stone 
             Db B#m B#sus2 B#m 
Block those feelings I'll never know 
          Gb 
One last time 
                  Db 
This time is the end 
         Gb 
Made my promise 
    Ab 
My amends 
       B#m Ab Gb 
Every meaningless word that he said 
I'll be fine 

 Db Db B#m B#sus2 B#m 
One more burbon I'll fade away 

           Db B#m B#sus2 B#m 
Lie those problems down in a grave 
          Gb 
Patience waits
             Db 
Guilt never does 
         Gb 
Save my place 
    Ab  
My life 
   B#m Ab Gb 
I swear I'll be back when I'm done 
I'll be fine 

 Db Db B#m B#sus2 B#m Db B#m B#sus2 B#m Gb Db Gb Ab B#m Ab Gb Db B#m B#sus2 B#m 
What he lacked in attention he paid for in stride 
           Db B#m B#sus2 B#m 
All those feeling they kept inside 
          Gb Db 
When I'm gone I hope they don't mind 

              Gb Ab B#m Ab Gb  
But when I'm gone promise me you won't forget that I was alive



All rights belongs to Greg Rekus.
 his Ukrainian fan - sovvun

Dont Say A Word chords – Chuck Ragan

 (This was originally  UG user TheVolta, who gets full credit, and my thanks, 
for doing the heavy
lifting. I wanted to submit the chords so that the site's transpose feature could be utilized.)

Artist: Chuck Ragan
Track: Don't Say A Word
 Gold Country

Standard Tuning

 Em C Bm Em C D Em C Bm Em C D Em 
Wake to sound again, still tinnitus reigns.
 C Bm 
Waiting for the call, and the time to state it all.

Don't say a word.
      Em C D 
Just lay like a stone and gather what it's worth.

   Em 
I long to see her eyes, shining like a light.
        C Bm 
That's taken hold my soul, and everything I know.

Don't say a word.
      Em C D 
Just breath like the breeze, till those eyes open slow.

   C D Em 
Before I rise I wish that I and everything I am.
      C D Em 
Will never fail, fall or bail or be a spineless man.
 C G D G 
Carry love till death and open up my chest.
    Em C D 
To damn the world, damn the pain and find our way.

 Em Em C Bm Em C D Em 
The will is unsurpassed, the courage always lasts.
 C Bm 
The passion's always warm, the spirit's never torn.

Don't say a word.
      Em C D 
Just wake with the sun, and stand up for the one.
 C D Em 
Now I rise I wish that I and everything I am.
 C D Em 
Will never fail, fall or bail or be a spineless man.
 C G D G 
Carry love till death and open up my chest.
    Em C D 
To damn the world, damn the pain and find our way.

 Em Em Em

Word On The Street Tabs by Youngblood Brass Band

 -------------------------------------------------------------------------------
                    Word on the Street - Youngblood Brass Band
-------------------------------------------------------------------------------
: Ryan Hancock

Originally played on Sousaphone; a Tuba that wraps around your body.
Use this riff as a basis and add some variations yourself.

If you wish to leave feedback please post a comment.
Thanks.


Tuning: Standard

==========
Basic riff
==========
                  *                 *                  *
G|----------------------------------5----------------------------------------|
D|----------------5------------------------------------5---------------2-----|
A|3------3-------------------------------------------------------------------|
E|---------------------------------------------------------------------------|
                  *                 *                  *
G|----------------5----------------------------------------------------------|
D|3------3-----------------------------------------6-------------------------|
A|----------------------------------6---------6------------------------4-----|
E|---------------------------------------------------------------------------|


| /  slide up
| \  slide down
| h  hammer-on
| p  pull-off
| ~  vibrato
| +  harmonic
| x  Mute note
| *  Start of beat 2, 3 and 4
===============================================================================

Dont Believe A Word chords – Sinner

 Don't Believe A Word

[originally by Thin Lizzy]
(Standard tuning)

Intro (2x)
Lead Guitar:      G ,  F# , G , F# , G , A G ,  F# , G , F# , G , B 
Chords:           Em C               


(Verse)

 G 
Don't believe me if I tell you

Not a word of this is true
       C 
Don't believe me if I tell you
                           C G D 
Especially if I'm telling you that I'm in love with you


       G 
Don't believe me if I tell you
                            C 
That I wrote this song for you
                                               G 
'Cause there might be some other silly pretty girl

I'm singing it to

                 C D 
Don't believe a word


(Chorus)
                 Em 
Don't believe a word
        C G C G 
'Cause words are so easily spoken
          Em C           
And your heart is like that promise
            G C G 
Made to be broken

 Em 
Don't believe anything
        C 
That I say to you
              G D 
'Cause there might be some other pretty girl
I'm singing to

 G 
Don't believe a word
        C D           
'Cause words are so easily spoken
 G 
Don't believe a word
             C                          
'Cause your heart is like that promise
            D 
Made to be broken



Lead Guitar:      G ,  F# , G , F# , G , A G ,  F# , G , F# , G , B 
Chords:           Em C     

(Verse)
 G 
Don't believe me if I tell you

Not a word of this is true
       C 
Don't believe me if I tell you
                           C G D 
Especially if I'm telling you that I'm in love with you


       G 
Don't believe me if I tell you
                            C 
That I wrote this song for you
                                               G 
'Cause there might be some other silly pretty girl

I'm singing it to

                 C D 
Don't believe a word


(Chorus)
                 Em 
Don't believe a word
        C G C G 
'Cause words are so easily spoken
          Em C           
And your heart is like that promise
            G C G 
Made to be broken

 Em 
Don't believe anything
        C 
That I say to you
              G D 
'Cause there might be some other pretty girl
I'm singing to

 G 
Don't believe a word
        C D           
'Cause words are so easily spoken
 G 
Don't believe a word
             C                          
'Cause your heart is like that promise
            D 
Made to be broken


 G 
Don't believe a word
              C 
'Cause these words can only tell lies
           G 
And these lies are coming to you, baby
            C 
With these tears in your eyes

[Solo]

(Chorus)

                 Em 
Don't believe a word
        C G C</spa

Last Word chords – Praise And Worship

 Intro:  Cadd9  -  Dsus  -  G5  
 
VERSE: 
 Cadd9 Dsus G 
The storm rises from the deep 
                Cadd9 
And rages around me 
         Dsus G  
But I will remember 
 Cadd9 Dsus G 
When doubt wars within my heart 
                Cadd9 
The battle almost lost 
         Dsus G 
I will remember 
 
 
CHORUS: 
 G  
 You have the last word 
 Cadd9 
 It is finished 
 G  
 You have the last word 
 Cadd9 
 It is finished 
 Em7 Cadd9  
 My fear is silenced in your love 
                G  
 My hope is endless 

VERSE: 
Your voice that calmed the violent sea 
Speaks courage over me 
So I will remember 
The words that wake the sun to rise 
Are breaking through my night 
I will remember 
 
Inst:  E7  -  Cadd9  -  G  -  Dsus  
 
BRIDGE: 
 E7 Cadd9        
Your word stands through the ages 
 G Dsus  
Your voice shatters the darkness 
 E7 Cadd9 G Dsus  
In you we are more than conquerors 
 
 E7 Cadd9  
You speak and strongholds surrender 
 G Dsus  
Your name overcomes the enemy 
 E7 Cadd9 G Dsus  
In you we are more than conquerors 

Liam And Me – Dont Say A Word chords

 Em D C 
Run away girl, run away girl, never say, don't say a word.
 Em D C 
Yes I've been alone, yes I've been alone, no I can't, I can't take you home.

      Em D 
Step one, get a drink and sit down,
         C Bm  
at the bar back in the corner where the music is loud
          Em D  
Its all wrong, but its the best that I'll get.
           C Bm Em  
This is a night I won't remember its a night to forget.

 D C Em D C  
Whoa ohh ohh, whoa ohh ohh.

      Em D 
Step two, to the left and the right,
        C Bm  
its a sorry little dance but for now its alright.
                 Em D 
Cause all these people that I meet, they are all just like me.
(Run away girl, run away girl, never say don't say a word, don't say a word now...)
          C Bm  
 They all hide out in darkened places where they cannot be seen.
             Em D 
I need some time I need some space I need a night I can deface,
         C Em D C D   (repeat)
I need a story and a name, cause my days are the same.

(I've made some mistakes I can never rewind.
I've got something else that I need to release.
I've got some excuses that you'll never believe)

 Em D 
Wait a minute, wait a minute put out your fires!
  C D 
You can't understand what you always defy.
 Em D  
I just need a girl who I never will know,
 C D 
except in once sense of the word while my true love's at home.

 Em D C 
Run away girl, run away girl, never say, don't say a word. don't say a word now.
 Em D C 
Run away girl, run away girl, never say, don't say a word
                       Em  
never say don't say a word. 

Word Forward Tab by Foo Fighters

Intro

Rhythm
e||---------------------------------------------------------3----------||
B||-----------------------------------------------------3------3---3---||
G||-------0-------0-------0-------0-------0-------0-------0------0-----||
D||---2-2---2-0-0---0-------------------------0-0---0------------------||
A||-------------------3-3---3-2-2---2-3-3---3--------------------------||
E||---------------------------------------------------3----------------||

e||----------------------------------------------------3---||
B||----------------------------------------------------3---||
G||-------0-------0-------0-------0-------0-------0----0---||
D||---2-2---2-0-0---0-------------------------0-0------0---||
A||-------------------3-3---3-2-2---2-3-3---3-------5--2---||
E||----------------------------------------------------3---||

Lead
e||-----------------------------------------------------------------------------||
B||-----------------------------------------------------------------------------||
G||-----------------------------------------------------------------------------||
D||-----------------------------------------------------------------------------||
A||-----------------------------------------------------------------------------||
E||-----------------------------------------------------------------------------||

e||------------------------------------------------------------------------||
B||------------------------------------------------------------------------||
G||---12-12---12-11-11---11-12-12---12-14-14---14-12-12---12-11-11--11-12--||
D||----x--x----x--x--x----x--x--x----x--x--x----x--x--x----x--x--x---x--x--||
A||---10-10---10--9--9----9-10-10---10-12-12---12-10-10---10--9--9---9-10--||
E||------------------------------------------------------------------------||

Verse 1

Rhythm 2x
e||---3--3--3--3--3--3--3--3--3--3--3--3--3--3--3--3---||
B||---3--3--3--3--3--3--3--3--3--3--3--3--3--3--3--3---||
G||---0--0--2--2--0--0--0--0--0--0--0--0--2--2--2--2---||
D||---0--0--0--0--2--2--2--0--2--2--2--2--3--3--3--3---||
A||---2--2--2--2--2--2--2--2--3--3--3--3---------------||
E||---3--3--------0--0--0--0---------------------------||

Lead
e||-------------------------------------------------||
B||-------------------------------------------------||
G||-------------------------------------------------||
D||-------------------------------------------------||
A||---7---7-5-3---8---0--3--5---2---7---7-5-3---8---||
E||-------------------------------------------------||

verse 2

Lead
e||------------------------------------------------------------||
B||------------------------------------------------------------||
G||---9--11--9/11/12--14--11--11--17--16--14--16--15--14--12---||
D||---x---x--x--x--x---x---x---x---x---x---x---x---x---x---x---||
A||---7---9--7/-9/10--12---9---9--15--14--12--14--13--12--10---||
E||------------------------------------------------------------||

Verse 3

Rhythm
e||-------------------------------------------------------------------------||
B||-------------------------------------------------------------------------||
G||-------------------9-9-9-9-9-9-9-7-5-5-5-5-5-5-5-5-10-10-10-10-----5-5---||
D||---5-5-5-5-9-9-9-9-9-9-9-9-9-9-9-7-5-5-5-5-5-5-5-5-10-10-10-10-7-7-5-5---||
A||---5-5-5-5-9-9-9-9-7-7-7-7-7-7-7-5-3-3-3-3-3-3-3-3--8--8--8--8-7-7-3-3---||
E||---3-3-3-3-7-7-7-7---------------------------------------------5-5-------||

e||-----------------------------------------------------------------------------||
B||-----------------------------------------------------------------------------||
G||---7-7-7-7---------9-9-9-9-9-9-9-7-5-5-5-5-5-5-5-5-10-10-10-10-10-10-10-10---||
D||---7-7-7-7-9-9-9-9-9-9-9-9-9-9-9-7-5-5-5-5-5-5-5-5-10-10-10-10-10-10-10-10---||
A||---5-5-5-5-9-9-9-9-7-7-7-7-7-7-7-5-3-3-3-3-3-3-3-3--8--8--8--8--8--8--8--8---||
E||-----------7-7-7-7-----------------------------------------------------------||

Lead
e||-------------------------------------------------------------------------||
B||-------------------------------------------------------------------------||
G||-------------------9-9-9-9-9-9-9-7-5-5-5-5-5-5-5-5-10-10-10-10-----5-5---||
D||---5-5-5-5-9-9-9-9-9-9-9-9-9-9-9-7-5-5-5-5-5-5-5-5-10-10-10-10-7-7-5-5---||
A||---5-5-5-5-9-9-9-9-7-7-7-7-7-7-7-5-3-3-3-3-3-3-3-3--8--8--8--8-7-7-3-3---||
E||---3-3-3-3-7-7-7-7---------------------------------------------5-5-------||

Chorus 

Rhythm
e||---------------------------------------------------------------------||
B||---------------------------------------------------------------------||
G||---9-9-9-9-7-7-7-7-5-5-5-5-4-4-4-4-5-5-5-5-7-7-7-7-------------------||
D||---9-9-9-9-7-7-7-7-5-5-5-5-4-4-4-4-5-5-5-5-7-7-7-7-5-5-5-5-5-5-5-5---||
A||---7-7-7-7-5-5-5-5-3-3-3-3-2-2-2-2-3-3-3-3-5-5-5-5-5-5-5-5-5-5-5-5---||
E||---------------------------------------------------3-3-3-3-3-3-3-3---||

Lead
e||---4-times--4-times--4-times--4-times--4-times--4-times--8-times---||
B||-------------------------------------------------------------------||
G||---12-------11-------12-------14-------12-------11-------12--------||
D||----x--------x--------x--------x--------x--------x--------x--------||
A||---10--------9-------10-------12-------10--------9-------10--------||
E||-------------------------------------------------------------------||

Bridge                          Bridge 2

Rhythm 2x                       
e||---16-times---16-times---||  then e||---16-times---16-times---||
B||-------------------------||       B||-------------------------||
G||---8---------------------||       G||---4----------3----------||
D||---8----------5----------||       D||---4----------3----------||
A||---6----------5----------||       A||---2----------1----------||
E||--------------3----------||       E||-------------------------||

Bridge

Lead 2x
e||----------------------------------------------------------||
B||----------------------------------------------------------||
G||----------------------------------------------------------||
D||---8-8-8-8-10-10-10-12-12-12-12-14-14-14-14-12-12-12-12---||
A||---x-x-x-x--x--x--x--x--x--x--x--x--x--x--x--x--x--x--x---||
E||---6-6-6-6--8-8-8-8-10-10-10-10-12-12-12-12-10-10-10-10---||

Bridge 2

then
e||---16-times---16-times---||
B||-------------------------||
G||---16---------17---------||
D||----x----------x---------||
A||---14---------13---------||
E||-------------------------||
Chorus 

Rhythm Palm muted
e||---------------------------------------------------------------------||
B||---------------------------------------------------------------------||
G||---------------------------------------------------------------------||
D||---9-9-9-9-7-7-7-7-5-5-5-5-4-4-4-4-5-5-5-5-7-7-7-7-------------------||
A||---7-7-7-7-5-5-5-5-3-3-3-3-2-2-2-2-3-3-3-3-5-5-5-5-5-5-5-5-5-5-5-5---||
E||---------------------------------------------------3-3-3-3-3-3-3-3---||

Lead
e||---------------------------------------------------------------------||
B||---------------------------------------------------------------------||
G||---------------------------------------------------------------------||
D||---9-9-9-9-7-7-7-7-5-5-5-5-4-4-4-4-5-5-5-5-7-7-7-7-------------------||
A||---7-7-7-7-5-5-5-5-3-3-3-3-2-2-2-2-3-3-3-3-5-5-5-5-5-5-5-5-5-5-5-5---||
E||---------------------------------------------------3-3-3-3-3-3-3-3---||

Intro: 2x
Verse: 2x
Verse2: 1x
verse3: 2x
verse4(2): 1x
Chorus: 4x
Bridge1: 2x
Bridge2: 1x
Inrto2: 2x
Muted Chorus: 4x
chorus: 4x
end

Word Forward Chords – Foo Fighters

G                        Em
Good bye Jimmy, farewell youth
C                                      F
I must be on my way I've had enough of you
G                           Em
Was a young man, proud and true
C                                      F
Just a simple boy with nothing left to lose

Em              C
Years that I've wasted
D           Em
These I owe you's

                        G
They're just fucking words
                Em
This is life or death
C
It's time to clear the air
F
You better save your breath
G
Say have you heard
             Em
Say have you heard
C
The Poison in my heart
F
And voices in my head

Em              C
Years that I've wasted
D           Em
These I owe you's

              G        Em       C       G
I meant every word for word for word forward
G        Em       C       G
Word for word for word forward
G        Em       C       G
Word for word for word forward
G        Em       C       G
Word for word for word forward

Em            G
But it's only words
Em            G
I meant every word
Em                   G
They're just fucking words

G        Em        C       G    (reapeat)
Word for word for word forward