Tag: wreckage

Wreckage Tabs – Parkway Drive V5

 ^^^^^^^^^^^^^^^^^^^^^^^^^^^^^^^^^^^^^^^^^^^^^^^^^^^^^^^^^^^^^^^^^^^^^^^^^^^^^^^
                          WRECKAGE ~ PARKWAY DRIVE
^^^^^^^^^^^^^^^^^^^^^^^^^^^^^^^^^^^^^^^^^^^^^^^^^^^^^^^^^^^^^^^^^^^^^^^^^^^^^^^

                           (Tuning) B,F#,B,E,G#,C#
   

  (Intro) 

c#|-----------------------|
G#|-----------------------|
E |-----------------------|
B |-----7h8p--------------|  x4       
F#|--0---------8----10----|
B |--0---------8----10----|

c#|-----------------------------------|
G#|-----------------------------------|
E |-----------------------------------|
B |-----7h8p-------7h8p--------8p7----|  x4
F#|--0---------8----------10----------|
B |--0---------8----------10----------|

  (Chorus)
                   "CHISH"
c#|--------------------------------------------|
G#|--------------------------------------------|
E |--------------------------------------------|
B |---------3-------------3----------3---------|  x3
F#|--0---5-----5---3---5-----5---5------5------|
B |--0-------------3-------------5-------------|

c#|--------------------------------------------|
G#|--------------------------------------------|
E |--------------------------------------------|
B |---------3-------------3--------------------|  
F#|--0---5-----5---3---5-----5---5-0-5-8-7-0---|
B |--0-------------3-------------5-0-5-8-7-0---|

  (Verse)

c#|---------------------------------------------------------------|
G#|---------------------------------------------------------------|
E |---------------------------------------------------------------|
B |---------------------------------------------------------------|
F#|--0-0-0-0-5-0-5-0-0-0-0-5-8-77770-0-0-0-0-5-0-5~-5~-55887770---|
B |--0-0-0-0-5-0-5-0-0-0-0-5-8-77770-0-0-0-0-5-0-5~-5~-55887770---|
     * * * *   *   * * * *           * * * *   *       
c#|---------------------------------------------------------------|
G#|---------------------------------------------------------------|
E |-------------------------------------------------5----9--------|
B |-------------------------------------------------x----x--------|
F#|--0-0-0-0-5-0-5-0-0-0-0-5-8-77770-0-0-0-0-5-0-0--3----7--------|
B |--0-0-0-0-5-0-5-0-0-0-0-5-8-77770-0-0-0-0-5-0-0----------------|
     * * * *   *   * * * *           * * * *   * *
c#|---------------------------------------------------------------|
G#|---------------------------------------------------------------|
E |---------------------------------------------------------------|
B |---------------------------------------------------------------|
F#|-70-0-0-0-0-5-0-5-0-0-0-0-5-8-77770-0-0-0-0-5-0-5~-5~-55887770-|
B |-70-0-0-0-0-5-0-5-0-0-0-0-5-8-77770-0-0-0-0-5-0-5~-5~-55887770-|
       * * * *       * * * *           * * * *   *
c#|---------------------------------------------------------------|
G#|---------------------------------------------------------------|
E |-------------------------------------------------5----9--------|
B |-------------------------------------------------x----x--------|
F#|--0-0-0-0-5-0-5-0-0-0-0-5-8-77770-0-0-0-0-5-0-0--3----7-----/--|
B |--0-0-0-0-5-0-5-0-0-0-0-5-8-77770-0-0-0-0-5-0-0-------------/--|
     * * * *       * * * *           * * * *   * *
  (Chorus)

c#|--------------------------------------------|
G#|--------------------------------------------|
E |--------------------------------------------|
B |---------3-------------3----------3---------|  x4
F#|--0---5-----5---3---5-----5---5------5------|
B |--0-------------3-------------5-------------|

  (Riff 1)

c#|----------------------------|
G#|----------------------------|
E |----------------------------|
B |-------7h8p-----------------|  x4       
F#|--0000-------8--0000--10----|
B |--0000-------8--0000--10----|
     ****          ****
  (Riff 2) Tremolo picking

c#|----------------------------|
G#|----------------------------|
E |----------------------------| 
B |----------------------------|       
F#|----------v3-------v5-------|
B |--v2------------------------|

c#|-------

Heart Shaped Wreckage chords – Smash V3

 E C#m A B E 
I'm not scared to tell the truth
 C#m 
I've been to hell and back, and I went with you
 A 
Remind me what we were before
   B 
When we said you are mine and I am yours

 E 
I don't know much, but I know myself
 C#m 
And I don't want to love anybody else
 A 
So let's break the spell and lift the curse
 B 
Remember when we fell for each other head first

 E 
Look at this heart shaped wreckage
 B 
What have we done?
 C#m A 
We've got scars from battles nobody won
         E 
We can start over, better
 B C#m     
Both of us know if we just let the broken pieces
 A 
Let the broken pieces go

 E 
I can't find you in the dark
 C#m 
Will we get back to who we are?
 A 
And I can't fix this on my own
        B             
Our love is still the best thing I've ever known

 E 
Look at this heart shaped wreckage
 B 
What have we done?
 C#m A 
We've got scars from battles nobody won
         E 
We can start over, better
 B C#m     
Both of us know if we just let the broken pieces
 A E 
Let the broken pieces go

 A C#m 
Let the broken pieces go
 A E B 
Just hold on to each other tonight, oh

 E 
Look at this heart shaped wreckage
 B 
What have we done?
 C#m A 
We've got scars from battles nobody won
         E 
We can start over, better
 B C#m     
Both of us know if we just let the broken pieces
 A             
Let the broken pieces 
 A             
Let the broken pieces 
 A B E 
Let the broken pieces