Tag: years

Living Room Song chords – The Wonder Years Vsion 4

 The Wonder Years

Living Room Song

Key: Eb/D# Major

Tuning: Half-a-Step Down (d#,A#,F#,C#,G#,D#)

 Matty Sievers

The song is played half-a-step down like most TWY songs and you'll see a tab for each 
chord below.
For the confused, tune your guitar down half a semi tone on each string then transpose 
this up a semi tone
on the app/website to make things clearer if you don't normally play out of standard.

I prefer the use of the Cmin open chord but if you're unable to move your fingers that 
quickly and like the
ease of just moving up and down the fretboard with no change then use the C chord. The 
band use the C chord
I however prefer the Cmin as it creates a much better vibe to the song.

Another option if you prefer that singer songwriter vibe, in standard tuning chuck your 
capo on 3rd fret and
transpose the tab down 3 semitones. Should be C, G, F, Amin.

I've added in the counts as best I could to help you out as I know how confusing the 
chord placement above
the lyrics can be sometimes. You should be able to hear the chord changes for the most 
part of the song
though.

      D# A# G# Cmin  or  C D#5 
e|---0----0----0----0------0---0----|
B|---0----0----0----0------0---0----|
G|---1----4----2----4------6---9----|
D|---2----4----2----6------6---9----|
A|---2----2----0----4------4---7----|
E|---0----0----0----0------0---0----|


       1 2 3 4 |1 2 3 4 1 2 3 4 |1 2 3 4
Intro:  D# A# G# D# A# G# 

VERSE (same timing)

 D# A# G# 
Guy on the radio sounds like a budget Steven Hawking.
 D# A# G# 
Keeps trying to tell me that The Bible says the world is ending.
 D# A# G# D# A# 
It goes down around May 20th, so I guess this song is pointless; you’re never gonna
 G# 
hear it.

PRE-CHORUS
            1   2    3    4    1  2  3  4 1   2    3   4
             C D#2 A# 
But if the world ends, I hope I’m in my living room with best friends.
G#(once)
So raise your glasses.

CHORUS (intro timing)

 D# A# G# D# A# G# 
We don’t have trouble sleeping. No one, no one’s gonna take that away from me.
 D# A# G# A# C G# 
We don’t have trouble sleeping. We know, we know who we wanna be.

VERSE

 D# A# G# 
Fuck some movie that I swore Keanu Reeves was in.
 D# A# G# 
These doomsday prophecies are all gonna amount to nothing.
 D# A# G# 
And so, for now, I’m calling “bullshit.”
                     D# A# G# 
If the Mayans don’t believe it, why should I be any different?

PRE-CHORUS

            C D#5 A# 
But if the world ends, I hope I’m in my living room with good friends.
G# (once)
So raise your glasses.

CHORUS

 D# A# G# D# A# G# 
We don’t have trouble sleeping. No one, no one’s gonna take that away from me.
 D# A# G# A# C G# 
We don’t have trouble sleeping. We know, we know who we wanna be.

BRIDGE:
1     2     3     4  1  2  3  4  1       2       3       4       1       2        3 & 4 &
 D# G# A# G# 
This week is gonna swallow me, but when it spits me out, I’m landing on my feet.
1     2     3     4     1 2 3 4  1   2   3   4
 D# G# A# 
I’m going to bed tonight in my New Found Glory hoodie.
   

The Innocent Years chords – Kathy Mattea

 Kathy Mattea - The Innocent Years




INTRO:  F Am7 F Am7 F Am7 F C 
I need to go down and wash my face
             F Dm7 
Deep in the river of my old home place
           Am G C G C - G 
I need to walk in the waters that once gave me life
             C 
Go over and walk the old railroad tracks
              F Dm7 
See if I can follow it all the way back
 Am G C F     
Back to where my vision is clear
 G F 
Back to the days of the innocent years


            C 
Though I'd trade it all back in
              F Dm7 
For just one day like it was back then
        Am G C G C - G 
Back before just living my life got in the way
           C 
To see my face at sixteen again
                       F Dm7 
When the boy down the street was my best friend
 Am G C F     
When his smile took away my tears
 G F 
Back in the days of the innocent years


CHORUS:
                Am 
You might grow wiser every day
               F 
But there's a price you have to pay
            Dm7 F 
The girl I was just disappeared
   G F 
I left her behind in the innocent years


INTERLUDE:  F Am7 F Am7 F Am7 F C 
Now and then when the sun goes down
               F Dm7 
I can see the moon over my hometown
       Am G C G C - G 
I can almost hear the train rushing by
            C 
I close my eyes and say a prayer
                  F Dm7 
To the wide eyed girl that I lost somewhere
 Am G C F     
Maybe someday she'll find me here
     G F 
And lead me back to the innocent years


CHORUS:
                Am 
You might grow wiser every day
               F 
But there's a price you have to pay
            Dm7 F 
The girl I was just disappeared
 G F 
Left her behind in the innocent years


CHORUS:
            Am 
When I get lost along the way
             F 
And I can't see the light of day
       Dm7 F 
I can almost feel her near
 G F 
Calling me back to the innocent years, yeah, yeah


OUTRO: 
        F Am7 F Am7 F Am7 F Am7 F Am7 F Am7 
The innocent years, woah, oh

Light Years chords – Glen Campbell

 Light Years
Glen Travis Campbell
written by Jimmy Webb
album Light Years 1998


Intro   G D C G D C 

Verse 1

                  G D C G 
There’s a lot of empty space separating me from you,  
    Em C 
it feels like eternity, 
 Am G C F 
a lonely place but I Have to make it through, 
      E A             
your love is my destiny, 
             D          
you’re just across the room, 
          A 
but on a scale of Tears, 

Chorus 1

                     E 
well it seems like light years 
                G E 
since I first looked into your eyes 
       D 
light years and saw them Fill with sweet surprise 
 F#m E A D 
light years since we said our last goodbye 

Verse 2

          A E D A 
It was a long hard fall when I fell in love with you,
    F#m D 
it felt like immortality, 
 Bm A D G 
   I came as close to it as anyone could do, 
         F# B 
but it almost cost my sanity, 
                E B 
it’s not that long ago, in our short careers 
                         
but it seems like 

Chorus 2

 F# 
light years 
              E A F# 
at least as far as I can see  
 E   
light years  since I held you close to me 
 B G#m F# B 
Light years my love goes on endlessly.

Bridge

          F# A     
And it’s just another party and it’s just another noise
      E G#m 
and suddenly our eyes meet and you almost loose you poise 
             B               
and in that fraction of a second 
   D F# 
I know you love me still because the

Chorus 3

 B F# A F#  
Light years and I don’t know where or when 
 B E          
light years till you’re in my arms again 
 F# G#m F# E B A G 
light years I’ll be waiting for you until then 
 F# E A F# 
light years since I looked into your eyes 
 B E                                   
light years and saw them fill with sweet surprise 
 F# G#m F# B E B E B 
light years  since we said our last goodbye.

flyinglibra51
God Bless Glen travis Campbell

A Moment In A Million Years chords – Scorpions

 Intro:       F Dm   
      |--------------------------8---7---5---8---7---5----------------------|  
      |------------------5---6---------------------------9------------------|  
      |-----4------------------------------------------------7--------------|  
      |-----3---------------------------------------------------------------|  
      |-----3---------------------------------------------------------------|  
      |-----1---------------------------------------------------------------|  

  
 Dm Am   
The lights are slowly fading down 
 F   
There's no one else, just you and me 
 E   
Nothing ever changed 
 Dm Am   
I see your faces in the crowd 
 F   
It seems I know each one of you 
 E   
For all my life 
 F   
I wish this night could last forever 
 F G   
But it's time to go 

 Dm Am   
I saw you laugh, I saw you cry 
 F   
All for one and one for all 
 E   
Nothing ever changed 
 Dm Am   
The way you sang just blew my mind 
 F   
It gave me chills from head to toe 
 E   
What a glorious night 
 F   
I wish this night could last forever 
 F G   
But it's time to go 

               G# Bb   
A moment in a million years 
 Bb Cm   
Is all I've got for you 
               G# Bb   
A moment in a million years 
 Bb Cm   
To make some dreams come true 
                 G# Bb   
A moment that I won't forget 
 Bb Cm   
Until the day I die 
               G# G   
A moment in a million years 
        Cm   
Called life 

 
 Dm Am    
The bus is waiting right outside  
 F 
To hit the road and once again  
 E 
I leave you all behind  
 Dm Am   
I chase another dream tonight  
 F 
And by the time you'll be home  
 E 
I'll be far away  
 F 
I wish this night could last forever  
 F G 
But it's time to go 

               G# Bb   
A moment in a million years 
 Bb Cm   
Is all I've got for you 
               G# Bb   
A moment in a million years 
 Bb Cm   
To make some dreams come true 
                 G# Bb   
A moment that I won't forget 
 Bb Cm   
Until the day I die 
               G# G   
A moment in a million years 
        Cm   
Called life 


 G# Bb Cm 
    Yeah
 G# Bb Cm 
    Oh, Yeah

                 G# Bb   
A moment that I won't forget 
 Bb Cm   
Until the day I die 
               G# G   
A moment in a million years 
        Cm   
Called life

---------------------
Thanks to JLS Org.© 2013 to chordify the song.

3 Years Older Tabs – Steven Wilson

 -------------------------------------------------------------------------------
                             3 Years Older - Steven Wilson
-------------------------------------------------------------------------------
: David Benítez
 debml700

Tuning: EADGBe

Hey guys, right now I'm missing the clean solo and the final one, I'll get to it eventually...
For some parts I only wrote the chord used, not the strumming pattern so be sure to
listen to the song to identify these.
Any comments or corrections are more than welcome below on the comments section,
and please don’t forget to rate! Have fun with this amazing song!

Intro A
Play with the rhythm a bit, not exactly this one but the chords are right.
e||-3-3--2--0-0-0-0--3-3--2--0-0-2-0-0-0----||
B||-3-3--3--3-3-3-3--3-3--3--3-3-3-3-3-3----||
G||-2-2--2--2-2-2-2--2-2--2--2-2-2-2-2-2----|| x4
D||-0-0--0--0-0-0-0--0-0--0--0-0-0-0-0-0----||
A||-----------------------------------------||
E||-----------------------------------------||

Again the same pattern, but a bit more staccato-ed, and with a bit of overdrive
                                        x4
e||-3-3--2--0-0-0-0--3-3--2--0-0-2-0-0-0-||-1-1--1-0-0-0-0--1-1--1--0-0-0-||
B||-3-3--3--3-3-3-3--3-3--3--3-3-3-3-3-3-||-1-1--1-1-1-1-1--1-1--1--1-1-1-||
G||-2-2--2--2-2-2-2--2-2--2--2-2-2-2-2-2-||-0-0--0-0-0-0-0--0-0--0--0-0-0-||
D||-0-0--0--0-0-0-0--0-0--0--0-0-0-0-0-0-||-0-0--0-0-0-0-0--0-0--0--0-0-0-||
A||--------------------------------------||-1-1--1-1-1-1-1--1-1--1--1-1-1-||
E||--------------------------------------||-------------------------------||

e|-------------------------|
B|-------------------------|
G|--------------------9----|
D|-6----2----8---7----9----|
A|-6----2----8---7----7----|
E|-4----0----6---5---------|


Intro B
Rhythm
e||---------------------------------------------------||
B||---------------------------------------------------||
G||-7--7--7-7-7-7-7-7-7--7--7--7-7-7-7-7-7-7-7-7-7----|| x8
D||-7--7--7-7-7-7-7-7-7--7--7--7-7-7-7-7-7-7-7-7-7----||
A||-5--5--5-5-5-5-5-5-5--5--5--5-5-5-5-5-5-5-5-5-5----||
E||---------------------------------------------------||

Lead
e|-------------------------------------------------------|
B|-8--------8-8-8--------8--7-------------7-8------------|
G|---------------------------------9p7--9----------------|
D|-------------------------------------------------------|
A|-------------------------------------------------------|
E|-------------------------------------------------------|

e|-------------------------------------------------------|
B|-15----13-12-10------10--10h12--10----8p7--------------|
G|-----------------12------------------------------------|
D|-------------------------------------------------------|
A|-------------------------------------------------------|
E|-------------------------------------------------------|

e|----------------------------------15b17r15-------------|
B|--------7-8--10--12--15/17--15-------------------------|
G|-7----9------------------------------------------------|
D|-------------------------------------------------------|
A|-------------------------------------------------------|
E|-------------------------------------------------------|

                                      x5
e||-3--3--2--3---3--3--2--3--2--3-3----||-3----3----1------1-------|
B||-3--3--3--3---3--3--3--3--3--3-3----||-3----3----1----1----1----|
G||-0--0--2--2---0--0--2--2--2--2-2----||-0----0----0--------------|
D||-0--2--0--0---0--2--0--0--0--0-0----||-2----0----0--------------|
A||-2--3---------2--3------------------||-3----2----1--------------|
E||-3------------3---------------------||------3-------------------|

                                        x3
e||---------------------------------------||-------------------|
B||-2-----3-----5-----7------8--/10-10----||-12----12/14-14----|
G||---0-----0-----0-----0-----------------||-0-----------------|
D||-----2(/)--4-----5-----7-(9)/(11)------||-12----12/14-14----|
A||------------

Three Cheers For Five Years chords – Mayday Parade V4

 Since I've yet to find a tab for this in the right key, let alone with the right words or all the chords where
they should be - here y'all go. I love this song so I thought it'd be nice to share a more accurate version...
I hope I've done it justice. This is only my second tab... please rate and comment, it would be helpful! 
- Charlie :)

Key: B

Tuning: Standard EADGBe

~ hold chord
/ repeat chord (strum down)

Chords:

B    [799877] or [223332]
 F#    [244322]
 G#m   [466444]
 E     [022100]

Intro: (the 4th section isn't quite right because it's hard to hear, but this is how I play it)

          B F# G#m F# 
e|---------2-------|---------2-------|---------2-------|---------2-------|
B|---0---0---0---0-|---0---0---0---0-|---0---0---0---0-|---0---0---0---0-|
G|-4---4-------4---|-3---3-------3---|-1---1-------1---|-----------------|
D|-----------------|-----------------|-----------------|-4---4-------4---|
A|-----------------|-----------------|-----------------|-----------------|
E|-----------------|-----------------|-----------------|-----------------|
         x2                x2                x2                x2

Verse 1: (you can repeat the intro or play the chords below)

                                B 
I swear that you don't have to go
                                 F# 
I thought we could wait for the fireworks
                                  E  
I thought we could wait for the snow
                          F# 
To wash over Georgia and kill the hurt
                                 B 
I thought I could live in your arms
                          F# 
And spend every moment I had with you
                             E  
Stay up all night with the stars
                              F# 
Confess all the faith that I had in you (I had in you)


Refrain:

 G#m F# E 
  To late, I'm sure and lonely
               E 
Another night, another dream wasted on you
 G#m F# E 
  Just be here now against me
                   E  ~
You know the words so sing along for me baby


Chorus:

 B E G#m 
For heaven's sake I know you're sorry
                    E 
But you won't stop crying
           F# B 
This anniversary may never be the same
          E G#m 
Inside I hope you know I'm dying
                 E 
With my heart beside me
              F# E 
In shattered pieces that may never be replaced
          F#          //        /
And if I died right now you'd never be the same


Interlude 1: 

          B F# G#m              
e|---------2-------|---------2-------|-2~~-222222222222|
B|---0---0---0---0-|---0---0---0---0-|-0~~-000000000000|
G|-4---4-------4---|-3---3-------3---|-1~~-111111111111|
D|-----------------|-----------------|-----222222222222|
A|-----------------|-----------------|-----222222222222|
E|-----------------|-----------------|-----------------|
         x2                x2                               

Verse 2:

                            G#m 
I thought with a month of apart
                           F# 
Together would find us an opening
                                  E 
And moonlight would provide the spark
                          E 
And that I would stumble across the key
                               G#m 
Or break down the door to your heart
                          F# 
Forever could see us not you and me
                              E 
And you'd help me out of the dark
                             E 

Best Years chords – Circa Waves

 chords - Jonathan Duong

Listen to song for timing and strumming patterns.

Chords used:  G A# D C Bm Am 

[Intro] Alternate between  G  and  A# G C           
Stand up straight, let your eyes fixate on a prize at the end of the road
         D G 
It's a long way off if you've never been here before
 G C  
Catch my eye if you dare to try, I've got nothing good on my mind
       D G 
I'm a twenty-something trying to be sure

      G Em D G 
Yeah we are flying through our best years
     Em D Bm 
And I'm not quite myself, please
 C Am Bm 
Take me out tonight
     C Am G 
And lie with me tonight

      G Em D G 
Yeah we are flying through our best years
     Em D Bm 
And I'm not quite myself, please
 C Am Bm 
Take me out tonight
     C Am G 
And lie with me tonight

 G C D G C D G C D G C C 
Oh Oh Oh...

   G C 
A lonely queue for the late-night fools, I got nothing to declare
        D G 
Just a bunch of calls and more classics than I can bear
 G C 
Catch my eye if you dare to try, I've got nothing good on my mind
       D G 
I'm a twenty-something trying not to care

      G Em D G 
Yeah we are flying through our best years
     Em D Bm 
And I'm not quite myself, please
 C Am Bm 
Take me out tonight
     C Am G 
And lie with me tonight


      G Em D G 
Yeah we are flying through our best years
     Em D Bm 
And I'm not quite myself, please
 C Am Bm 
Take me out tonight
     C Am G 
And lie with me tonight

[Instrumental] Alternate between  G  and  C G Em D G 
Yeah we are flying through our best years
     Em D Bm 
And I'm not quite myself, please
 C Am Bm 
Take me out tonight
     C Am G 
And lie with me tonight


      G Em D G 
Yeah we are flying through our best years
     Em D Bm 
And I'm not quite myself, please
 C Am Bm 
Take me out tonight
     C Am G 
And lie with me tonight

10 Years Of Parkway Drive album Tabs – Parkway Drive

 10 Years of Parkway Drive
Guitar Medley by CobjayGuitar 

Hey guys, this is the tab that directly relates to the Parkway Drive medley I made. 
So far I have over 35,000 views on it so I thought I'd tab it for whoever is interested! 

Cheers, Cobjay


0:10 Horizons
(Finger-picked)- Played 5 times

C#|--7-----7-----10-----2-----2-----5-----3-----3-----7----5-----7-----2---|
G#|----0-----0------------0-----0-----------0-----0----------0-----0-------|
E |------0-----0------------0-----0-----------0-----0----------0-----------|
B |--------------------------------------------------------------------0---|
F#|--7-----------10-----2-----------5-----3-----------7----5---------------|
B |------------------------------------------------------------------------|


Guitar 2 (Starts after the second repetition)
C#|-------------------------------------------------------|
G#|-------------------------------------------------------|
E |--------------------------------------------4--5--7----|
B |--2-----2-------------------------------2---4--3--7----|
F#|--2-----2-------------------------------2---2--3--5----|
B |--2-----2-----\\\pick-slide ------------2--------------|

0:49 Five Months
C#|----------------------------------------|
G#|----------------------------------------|
E |------7-10-9------------7-10-9----7-----|
B |-------------10-0-8---8--------10-------|
F#|--8-8-----------------------------------|
B |--8-8-----------------------------------|
     * *           *

C#|----------------------------------------|
G#|----------------------------------------|
E |------7-10-9-------10-9-7---9-7~--------|
B |-------------10-----------0-------------|
F#|--8-8-----------------------------------|
B |--8-8-----------------------------------|
     * *                     *

C#|----------------------------------------|
G#|----------------------------------------|
E |------7-10-9------------7-10-9----7-----|
B |-------------10-0-8---8--------10-------|
F#|--8-8-----------------------------------|
B |--8-8-----------------------------------|
     * *           *

C#|----------------------------------------|
G#|----------------------------------------|
E |------7-10-9-------10-9-7---10-10-7~----|
B |-------------10-----------0-------------|
F#|--8-8-----------------------------------|
B |--8-8-----------------------------------|
     * *                     *



1:01 Boneyards
C#|------------------------------------------------------|
G#|------------------------------------------------------|
E |------------------------------------------------------|
B |------------------------------------------------------|
F#|--0--0-0000-00--00-0-0-0--0000-00--0--0-0000-00-------|
B |--0--0-0000-00--00-0-0-0--0000-00--0--0-0000-00-------|
     *  * **** **  ** * * *  **** **  *  * **** **

C#|----------------------------------------|
G#|----------------------------------------|
E |----------------------------------------|
B |----------5--------8p7p5---5------------|
F#|--0h5h7h8---8p7p5--------8---8p7p5------|
B |----------------------------------------|

C#|------------------------------------------------------|
G#|------------------------------------------------------|
E |------------------------------------------------------|
B |------------------------------------------------------|
F#|--0--0-0000-00--00-0-0-0--0000-00--0--0-0000-00-------|
B |--0--0-0000-00--00-0-0-0--0000-00--0--0-0000-00-------|
     *  * **** **  ** * * *  **** **  *  * **** **

C#|----------------------------------------|
G#|----------------------------------------|
E |----------------------------------------|
B |----------5--------8p7p5---5------------|
F#|--0h5h7h8---8p7p5--------8---8p7p5------|
B |----------------------------------------|

C#|------------------------------------------------------|
G#|------------------------------------------------------|
E |------------------------------------------------------|
B |------------------------------------------------------|
F#|--0--0-0

Isolation Years Tabs – Opeth V2

 -------------------------------------------------------------------------------
                            Isolation Years - Opeth
-------------------------------------------------------------------------------
:


Tuning: EADGBe

Such a wonderfully sad song. Transposed for playing in standard tuning. 
Doesn't have quite the same ring to it as the d-tuning, but saves you from 
re-tuning that precious acoustic guitar of yours just for playing 1 tune.
This will be the equivalent of 1 step up from the original song off the album.

Intro

let ring
e|---------------------------------------------------------------------------|
B|------------0-------------0--------------0---------------0-----------------|
G|---------14------14----14---14--------14------14------14---0---------------|
D|---17---------------17----------17---------------17------------------------|
A|---------------------------------------------------------------------------|
E|---------------------------------------------------------------------------|

e|---------------------------------------------------------------------------|
B|-----------0--------------0--------------0------------0--------------------|
G|--------11------0------11---11--------11-----0------7---7------------------|
D|---14---------------12----------14---------------9-------------------------|
A|---------------------------------------------------------------------------|
E|---------------------------------------------------------------------------|
Play twice

Intro end sequence
e|---------------------------------------------------------------------------|
B|---------0--------0--------------------------------------------------------|
G|-------7---7----5------5-4/5/4/5/4-----------------------------------------|
D|---7----------5----------4/5/4/5/4-----------------------------------------|
A|---------------------------------------------------------------------------|
E|---------------------------------------------------------------------------|


Verse
let ring
e|---------------------------------------------------------------------------|
B|---------0---0-----------0---0---------------------------------------------|
G|-----6h7---7-----------2---2-----------------------------------------------|
D|---------------------2----------2/4--4-------------------------------------|
A|------------------2--------------------------------------------------------|
E|---7-----------------------------------------------------------------------|


pre-chorus
e|-----------0---------------------------------------------------------------|
B|----0--------0-----5--5----3h5p3p0--------0--------------------------------|
G|------0--------4-------------------0h2/4----0------------------------------|
D|--------5-------------------------------------2/4--------------------------|
A|---------------------------------------------------------------------------|
E|---------------------------------------------------------------------------|

e|-----------0---------------------------------------------------------------|
B|----0--------0-----5----7--8--10-------------------------------------------|
G|------0--------4--------7--9--11-------------------------------------------|
D|--------5------------------------------------------------------------------|
A|---------------------------------------------------------------------------|
E|---------------------------------------------------------------------------|

Chorus
Let ring
e|---------------------0--------------------0--------------------------------|
B|---------12-------12----------12-------12----------------------------------|
G|------12----12-------------12----12----------------------------------------|
D|---14----------14-------14----------14-------------------------------------|
A|---------------------------------------------------------------------------|
E|---------------------------------------------------------------------------|

e|---------------------0--

Days Even Years Tabs – Dan Arborise

 Days Even Years – Dan Arborise

Tuning CBDGBD - I think the origonal is another half step down, with capo on fourth, but 
this way makes it easy
to change from standard. The tab isn't exactly the same - its more simple but similar 
enough to sound good I
think. Also apologies for leaving out small bridge section... couldn't work that bit out!

CAPO 3rd Fret – all tab relative to capo.

Part A

D|-----------------0-----0-----------------------------0-----0--------------|
B|-----0-----------------------0-----------0-----------------------0--------|
G|-----------0-----------------------0-----------0-----------------------0--|
D|-----5--------5-----5-----------5--------4--------4-----4-----------4-----|
B|--0-----0--------0--------0-----------0-----0--------0--------0-----------|
C|--------------------------------------------------------------------------|

Part B

D|--------------------9--------------------------------9-----------------|
B|--5-----------5-----------------0--------5-----------------------0-----|
G|--------0-----------------0--------------------0-----------0-----------|
D|-----0-----------0-----0-----------0-----0--------0-----0-----------0--|
B|--5--------5--------5--------5--------5-----5--------5--------5--------|
C|-----------------------------------------------------------------------|

Part C

D|-----------------0-----0-------------------------0-----------------------|
B|-----0-----------------------0-------------------------0-----------0-----|
G|-----------0-----------------------0h2-----2-----------------0-----------|
D|-----0--------0-----0-----------0-------0-----------0-----0-----------0--|
B|--0-----0--------0--------0--------0----------0--------0--------0--------|
C|-------------------------------------------------------------------------|

Part D

D|-----------------0-----------------------2-----------0--------------------|
B|-----0-----------------------0-----------------0-----------------0--------|
G|-----------0-----------0-----------0-----------------------0-----------0--|
D|-----4--------4-----4-----------4--------0--------0-----0-----------0-----|
B|--------------------------------------------------------------------------|
C|--4-----4--------4--------4-----------0-----0--------0--------0-----------|

Structure:
INTRO           (A x2) B C B C
VERSE 1 (A x2) B C B C
VERSE 2         (A x2) B C B C
BRIDGE  D C D C
VERSE 3         (A x2) B C B C
BRIDGE  D C D C

Bridge section then repeats till finish.

New Years In Sochi chords – The Fugitives

 New Year's in Sochi - The Fugitives
http://www.fugitives.ca/


 G 
Dear Dmitry Isakov
 C 
Shrug their sticks and stones off
 G D 
Lug your sign of life into the street
 G 
Hold it up like neon words
 C 
Hold it up like bible verse
      G D G 
It's truer than the stories we believe

                    G C G C 
        And we'll all go to heaven at the end of the day
                    G C G 
        And we'll all get to heaven either way

 G 
People love to celebrate
        C 
Their life, their love, the laws of state
       G D 
They paint it on the billboard of their heart
      G 
They rule your body in its name
       C 
They leave your loves to call from caves 
      G D G 
They drop you like anchor in the dark

                    G C G C  
        But we'll all go to heaven at the end of the day
                    G D G 
        And we'll all go to heaven either way

                    G C G C 
        And we'll all go to heaven at the end of the day
                    G D G 
        And we'll all go to heaven either way

- - (block chords) - -
           C D 
When the midnight chimes on the Kremlin
          C D 
And the fireworks rise - put a wish in your body
- - (pick up the strum) - -
         C D 
For a million eyes, for the whole world watching
         C D 
For the night alive, for the new year coming
         C D 
For each baton that tells you no
         C D 
We'll bring a plane to fire a rose
 C D 
Love bows down - not to beg, not to obey
         C D 
But to rise     But to rise

- - (jubilant palm-muting goodness with shouting!) - -
         G 
        And we'll all go to heaven at the end of the day
        
        And we'll all go to heaven either way
        
        And we'll all go to heaven at the end of the day
                              D G 
        And we'll all go to heaven either way
- - (slow it right down, picky block chords) - -             
                   G C G C 
        And we'll all go to heaven at the end of the day
                    G D            ( G )           
        And we'll all go to heaven either way

New Years Eve chords – Eric Hutchinson

 (We Can Remember) New Year’s Eve  by: Eric Hutchinson
Chords by Mike Miller
Intro  (and in between verses)
 Bb Gm Bb Gm 
Verse 1
 Bb Gm 
funny how time slips away
 Cm           Gm11          F11 
one more year gone by
 Bb Gm 
and our stories will convey
 Cm           Gm11          F11 
how our tears ran dry
 Bb               Dm11         Gm Gm7 
things won’t be like before
 Eb Eb7 F 
but i’m pretty sure
 Bb Bb/F# Gm 
spirits will endure
 Cm F Bb 
and we can remember new year’s eve
Verse 2
take your eye off of the clock
you can hold time still
opportunity will knock
leaving you fulfilled
as an old year turns
think of what we’ve learned
hope and promise burned
and we can remember new year’s eve
Bridge
 Cm F 
people get bent out of shape
                   Bb                    Dm11           Gm 
and searching out of plans they made for one big night
 Cm F 
time’s a man made measure of business and pleasure
 D Gm   
and it starts to take over our lives
 Eb 
and we let it
 Eb /  F 
oh we can’t forget
Verse 3
when we look back on these days
we will find some truth
in the year that patiently
celebrated youth
save the season for your friends
smiles will transcend
this is not the end
and we can remember new year’s eve

A Thousand Years Tabs by Sungha Jung V2

 By: Darwin Taladiar

this is my first tab.rate pls. :)

Capo on 3rd fret.
This version is Sungha Jung's

Intro:
e---7--7--7------5----7--7--7-----5----8--8--8--7----7--------5--3--2----|
B---8--8--8-----------8--8--8-----7----5--5--5-------8--8-----3--3------3|
G--------------------------------------5-------------7--7-----2----------|
D------------------------------------------------------------------0--0--|
A----------------9-------------------------------------------------------|
E---10----------------0--------------------------------------------------|

Verse: YOU WILL DO THE VERSE 2X
3X
e----------------------------|
B---------------3------------|
G---0------------------------|
D--------2-----------2-------|
A---3------------------------|
E----------------------------|

e----------------------------|
B---0------------------------|
G------2---0-----------------|
D----------------------------|
A---3------------------------|
E----------------------------|

3x
e----------------------------|
B-----------3----------------|
G--0-------------------------|
D------0---------0-----------|
A--2-------------------------|
E----------------------------|

e---------------------------------------------------------------------------|
B--3---1p0-----------------------------3---1p0--------------0---------------|
G----------------2p0---0----0--------------------2---2-----------------0h2--|
D-------------0-----------2------2-------------------0--0-------4----------0|
A--2---------------------------2--------------------------------------------|
E----------------------0---------------0------------------------2---2-------|

Pre-Chorus
YOU WILL BE STRUMMING IN THIS PART.
e----33333-----000---222------33333-----0h2---------------------------|
B----33333-----333---333------33333-----3-----------------------------|
G----00000-----000---000------00000-----2-----------------------------|
D----22222-----222---222------00000-----0-----------------------------|
A----00000-----000---000------22222-----X-----------------------------|
E----XXXXX-----XXX---XXX------33333-----X-----------------------------|

CHORUS:
e-----------------------0------------------------------|
B--0-3p0-------0-3p0----------------3------------------|
G--0-0-----0---0-0------------0---------2--0-----------|
D--0-------0---0------------0---0----------------------|
A------------------------------------------------------|
E--3-----------3--------3---------------2--------------|


e-----------------------0------------------------------|
B--0-3p0-------0-3p0----------------3------------------|
G--0-0-----0---0-0------------0---------2--0-----------|
D--0-------0---0------------0---0-------0--------------|
A------------------------------------------------------|
E--0-----------0--------3------------------------------|

Years chords – Barbara Mandrell

 Intro  F Bb Dm C Bb F F Bb C Dm 
Faded photographs the feelings all come back
 Bb Dm C 
Even now sometimes, you feel so near
 F Bb C Dm 
and i still see your face like it was yesterday 
 Bb C F 
Its strange how the days turned into years
CHORUS
 F Bb Bb/A Gm 
Years of hanging on, to dreams already gone
 A Bb C 
Years of wishing you were here
 F Bb Bb/A Gm 
After all this time you'd think I wouldn't cry
    Bb C F 
Its just that I still love you after all these year

Same as intro  F Bb Dm C Bb F F Bb C Dm 
2. Nighttime gently falls another day is gone
 Bb Dm C 
I turn around to find you're still not here
 F Bb C Dm 
I'll leave the hall light on,In case you come back home
  Bb C F 
Funny, I've been saying that for years

CHORUS;
         C F 
TAG;    After all these years

Outrol;  F Bb Dm C Bb F

There There Tabs by The Wonder Years V3

 This is the intro track off The Wonder Years 4th album The Greatest Generation. It 
is played in Drop Db (Drop C#) and is easily my favorite song on the album so I 
touched up the tabs that were already posted. They're not perfect but I feel like 
these are clearer and closer to being right so I hope you all enjoy.

Intro x2
Rhythm Guitar
|-------------------------------|
|-------------------------------|
|-------------------------------|               X2
|-1111111111111111--------------|
|-7-7-7-7-7-7-7-7-9999-11111111-|
|-7-7-7-7-7-7-7-7-7777-7-7-7-7--|

|------------------|
|------------------|
|------------------|      x2
|-7777777777777777-|
|-0000000000000000-|
|-0000000000000000-|

Chorus 1
Rhythm Guitar
|-------------------------|
|-------------------------|
|-------------------------|
|--44-77-7--0-0-2222------|
|--44-77-7--0-0-2222------|
|--44-77-7--0-0-2222------|

Lead Guitar
|---------------------------|
|-10-10-9-------------------|
|---------9-9-----9---------|
|-------------9-11--11-9-77-|
|---------------------------|
|---------------------------|
                                X2
|---------------------------|
|-10-10-9----------------10-|
|---------9-9-----9-----9---|
|-------------9-11--9-11----|
|---------------------------|
|---------------------------|

Verse
Rhythm Guitar
|-------------------|
|-------------------|
|-------------------|   X4
|-77777777-00000000-|
|-77777777-00000000-|
|-77777777-00000000-|

Lead Guitar
|---------------------------|
|-10-10-10-10--9-9-9-9------|
|---9--9--9--9--9-9-9-9-----| 
|---------------------------|
|---------------------------|
|---------------------------|
X2      
|----------------------------|
|10p9------------------------|
|----9--9-----9------------9-|
|-----11--9-11--11-9-7-9-11--| 
|----------------------------|
|----------------------------|

Chorus 2
Rhythm Guitar
|-------------------------|
|-------------------------|
|-------------------------|
|--44-77-7--0-0-2222------|     x4
|--44-77-7--0-0-2222------|
|--44-77-7--0-0-2222------|

Lead Guitar
|---------------------------|
|-10-10-9-------------------|
|---------9-9-----9---------|
|-------------9-11--11-9-77-|
|---------------------------|
|---------------------------|
                                X4
|---------------------------|
|-10-10-9----------------10-|
|---------9-9-----9-----9---|
|-------------9-11--9-11----|
|---------------------------|
|---------------------------|

Bridge
Rhythm Guitar
|---------------------------------------------------------------------|
|---------------------------------------------------------------------|
|---------------------------------------------------------------------| X2
|-77777777777777777777777777777777-0-0-000000000000000000000000000000-|
|-77777777777777777777777777777777-0-0-000000000000000000000000000000-|
|-77777777777777777777777777777777-0-0-000000000000000000000000000000-|
                                                    * *

Lead Guitar
|----------------------------------|
|-9b10r9b10r9----------------------|
|------------9-----9------------9--| X4
|--------------9-11--11-9-7-9-11---|
|----------------------------------|
|----------------------------------|

Chorus 3
Rhythm Guitar
|-------------------------|
|-------------------------|
|-------------------------|
|--44-77-7--0-0-2222------|     x3
|--44-77-7--0-0-2222------|
|--44-77-7--0-0-2222------|

|-------------------------|
|-------------------------|
|-------------------------|
|--44-77-7--0-0-2222------|     
|--44-77-7--0-0-2222------|
|--44-77-7--0-0-2222------|
                ****
Lead Guitar
|---------------------------|
|-10-10-9-------------------|
|---------9-9-----9---------|
|-------------9-11--11-9-77-|
|---------------------------|
|---------------------------|
                                X4
|---------------------------|
|-

We Can Remember New Years Eve chords – Eric Hutchinson

 (We Can Remember) New Year’s Eve  by: Eric Hutchinson
Chords by Mike Miller
Intro  (and in between verses)
 Bb Gm Bb Gm 
Verse 1
 Bb Gm 
funny how time slips away
 Cm           Gm11          F11 
one more year gone by
 Bb Gm 
and our stories will convey
 Cm           Gm11          F11 
how our tears ran dry
 Bb               Dm11         Gm Gm7 
things won’t be like before
 Eb Eb7 F 
but i’m pretty sure
 Bb Bb/F# Gm 
spirits will endure
 Cm F Bb 
and we can remember new year’s eve

Verse 2

take your eye off of the clock
you can hold time still
opportunity will knock
leaving you fulfilled
as an old year turns
think of what we’ve learned
hope and promise burned
and we can remember new year’s eve

Bridge

 Cm F 
people get bent out of shape
                   Bb                    Dm11           Gm 
and searching out of plans they made for one big night
 Cm F 
time’s a man made measure of business and pleasure
 D Gm   
and it starts to take over our lives
 Eb 
and we let it
 Eb /  F 
oh we can’t forget

Verse 3

when we look back on these days
we will find some truth
in the year that patiently
celebrated youth
save the season for your friends
smiles will transcend
this is not the end
and we can remember new year’s eve

Wonder Years chords – Real Estate

 Real Estate
Wonder Years
Days 

One of my favorite tunes by these guys.  Real easy to play. 

Note: Em7 as E|-3-|  *G/F# E|-3-|   D5 E|-0-|
             B|-3-|        B|-3-|      B|-3-|
             G|-0-|        G|-0-|      G|-2-|
             D|-2-|        D|-0-|      D|-0-|
             A|-2-|        A|-0-|      A|-0-|
             E|-0-|        E|-2-|      E|-0-|

Intro/Main riff:  G G/F# Em7 D D5 D G G/F# Em7 D D5 D 
I'm not trying to be cool, I only wanna be kind

 G G/F# Em7 D D5 D 
I know that I've pissed you off, baby better rewind

 Em7 D D5 D 
But I'm not yours and you're not mine

 G D D5 D 
No I'm not OK but yes I'm doing fine

Jealous lovers left behind, wonder years passed me by
Far away but still on my mind, I think of you from time to time

And that's it!

All These Dark Years Tabs by Orden Ogan

 Orden Ogan - All these dark years.
Such an amazing song,  Eldad Corem. 1\23\14

Intro:

All the open string notes are palm muted.

e|----------------------------------------------------------------------------|
B|----------------------------------------------------------------------------|
G|----------------------------------------------------------------------------|    X2
D|-----------------2------------------------------------2---------------------|
A|-----------------2---7--5-----------------------------2---7--5------------5-|
E|-0-000-0-0-23-00-0-00-00-0-5h7-00-232-0-000-0-0-23-00-0-00-00-0-5h7-00-2h3--|

e|-----------------------------------------------------------------------|
B|-----------------------------------------------------------------------|
G|-----------------------------------------------------------------------|
D|-----------------------------------------------------------------------|  X2
A|------------------7--5------------5------------------7--5------------5-|
E|-000000-0-000000-0-00-0-5h7-00-2h3--000000-0-000000-0-00-0-5h7-00-2h3--|

Then second guitar goes:

E|-2-|
A|-2-| And let it ring until the Verse starts, then it pick slides.
E|-0-|

While guitar one:

e|-------------------------------------------------------------|
B|-------------------------------------------------------------|
G|-------------------------------------------------------------|
D|-------------------------------------------------------------|
A|--10-9-7-5-5-7---10-9-7-5-5-7---10-9-7-5-5-7---10-9-7-5-5-7--|
E|-0--0-0-0-0---0-0--0-0-0-0---0-0--0-0-0-0---0-0--0-0-0-0---0-|

Verse 1:

Lost my heart on the eastern shore.. (no guitar)

All alone, here fire's dying..

   Let ring..
e|-------------|
B|-------------|
G|-------------|
D|-------------|   X2
A|-7~---5~-----|
E|---7~---5~---|

All the open E-string notes are palm muted.

I wasted half my life, But all I ever wanted was a clearer view of myself..
I broke my back with all the things that I considered, And now there's nothing left of it..

e|------------------------------------------------------------------------10-|
B|---------------------------------------------------------------------8-7---|
G|------7-----------------7-------------------7-----------------7-----7------|
D|-------5-----------------5-------------------5-----------------5---7-------|  X2
A|--------7-------2h5-------7-5-2-0-2-0---------7-----10-12-------7s9--------|
E|-0-000---3p0h2h3---0-000-------------3-0-000---0-000--0--0-000-------------|

Bridge:

All bass notes are palm muted for this part.

   And the ashes of fathers, Now cover the track
e|-------------------------------------------------|
B|-------------------------------------------------|
G|-------------------4---4-------------------4---4-|
D|-------2---2-------4---4-------2---2-------4---4-|
A|-------2---2-2-222-2-2-2-------2---2-2-222-2-2-2-|
E|-0-000-0-0-0-------------0-000-0-0-0-------------|

   In a land where fortune is borrowed
e|-------------------------------------------------|
B|-------------------------------------------------|
G|-------------------4---4-------5---5-------7---7-|
D|-------2---2-------4---4-------5---5-------7---7-|
A|-------2---2-2-222-2-2-2-3-333-3-3-3-5-555-5-5-5-|
E|-0-000-0-0-0-------------------------------------|

In these days where all luck, is just leaving the sad
                                                    In the air just thoughts full of sorrow..
e|----------------------------------------------------------------|
B|----------------------------------------------------------------|
G|-------------------4---4-------5---5-------7---7----------------|
D|-------2---2-------4---4-------5---5-------7---7--7--9--10--12--|
A|-------2---2-2-222-2-2-2-3-333-3-3-3-5-555-5-5-5--7--9--10--12--|
E|-0-000-0-0-0--------------------------------------5--7--8---10--|

Chorus:
(All open E-string notes are palm muted)

  

Three Cheers For Five Years Acoustic chords – Mayday Parade V3

 Song: Three Cheers For Five Years (Acoustic Version)
Artist: Mayday Parade

Standard Tuning
Capo 4th fret        



                                 G 
I swear that you dont have to go
                                 Gsus2 
I thought we could wait for the fireworks
                                 Em7 
I thought we could wait for the snow
                          Cadd9 
To wash over Georgia and kill the hurt
                                G 
I thought I could live in your arms
                         Gsus2 
And spend every moment I had with you
                            Em7 
Stay up all night with the stars
                              Cadd9 
Confess all the faith that I had in you


PRE-CHOURS:


 Em7 Gsus2 G 
Too late, Im sure and lonely

Another night, another dream wasted on you
 Em7 Gsus2 G 
Just be here now against me

You know the words so sing along for me baby


CHORUS:

 G Gsus2 Em7 
For heaven's sake I know you're sorry
                    Cadd9 
But you won't stop crying
           Gsus2 G 
This anniversary may never be the same
          Gsus2 Em7 
Inside I hope you know I'm dying
                 Cadd9 
With my heart beside me
              Gsus2 Em7 
In shattered pieces that may never be replaced
          Gsus2 
And if I died right now you'd never be the same

INTERLUDE/VERSE 2:
  ( G )                                ( Gsus2 )
e|----------------------------------|----------------------------------|
B|---------3---------------3--------|---------3---------------3--------|
G|-5-0-5-0---0-5-0-5-0-5-0---0-5-0--|---0---0---0---0---0---0---0---0--|
D|----------------------------------|-4---4-------4---4---4-------4----|
A|----------------------------------|----------------------------------|
E|----------------------------------|----------------------------------|

                                      Em7 
  (Cadd9)      I thought with a month of apart
e|----------------------------------|
B|---------3---------------3--------|
G|---0---0---0---0---0---0---0---0--|
D|-2---2-------2---2---2-------2----|
A|----------------------------------|
E|----------------------------------|

                           Gsus2 
Together would find us an opening
                                 G 
And moonlight would provide the spark

And that I would stumble across the key
                                Em7 
Or break down the door to your heart
                          Gsus2 
Forever could see us not you and me
                             G 
And youd help me out of the dark

And Id give my heart as an offering


PRE-CHORUS


CHORUS

OUTRO:

     Em7 Gsus2 Cadd9 G 
And I will always remember you as you are right now to me
     Em7 Gsus2 G Cadd9 
And I will always remember you now, remember you now

    Cadd9 Gsus2 Em7 
So sleep alone tonight with no one here just by your side
             G 
Sleep alone tonight

 Em7 
How does he feel, how does he kiss?
 Gsus2 
How does he taste while he's on your lips?
 Em7 
How does he feel, how does he kiss?
 Gsus2 
How does he taste while he's on your lips?
 Em7 
How does he feel, how does he kiss?
 Gsus2 
How does he taste while he's on your lips?

 Em7 
I can't forget you
   G

The Living Years chords – Mike And The Mechanics V3

 Artist: Mike & The Mechanics
Song: The living years
: DJ
20th Jan 2014

Tuning: Standard
CAPO: 1st fret (Sounds in key of Ab)

Chord shapes are relative to capo position:
 G      =  320033     Cmaj7  =  x32000    D7sus4  = xx0213
 Gsus2  =  3x0233     C      =  x32010    D7      = xx0212
 F#m    =  244222     Fmaj7  =  103210    G/B     = x20033
 G4     =  320013     Am7    =  x22130

*************************************************************************

    G Gsus2 G G Gsus2 G F#m 
|  /  /   /   /  |  /  /   /   /  |  /  /  /  /  |  /  /  /  /  |


    G G4 G G4 Cmaj7 C Cmaj7 C 
Every gene - ration...      blames the one be - fore,
      G G4 G G4 Cmaj7 C Cmaj7 C 
And all of their frust - rations...   come beating on your door,
   Fmaj7 
I know that I'm a prisoner to all my Father held so dear,
    Am7 
I know that I'm a hostage... to all his hopes, and fears,
       D7sus4 D7 D7sus4 D7 G G4 G G4 
I just wish I could have told him  in the living years!


     G G4 G G4 Cmaj7 C Cmaj7 C 
Crumpled bits of paper,        filled with imperfect thought,
    G G4 G G4 Cmaj7 C Cmaj7 C 
Stilted conver - sations,      I'm a - fraid that's all we've got,
    Fmaj7 
You say you just don't see it, he says it's perfect sense,
     Am7 
You just can't get agreement... in this present tense,
       D7sus4 D7 D7sus4 D7 G G4 
We all talk a different language, talking in de - fence!


 G G4 G G G4 Cmaj7 C Cmaj7 C 
                Say it loud-------,                say it clear----!
   (Say it loud-----------,    say it clear-----!)

          Am7 D7sus4 D7 G G4 
You can listen... as well... as you hear-------,


 G G4 G G G4 Cmaj7 C Cmaj7 C 
                It's too late-------,              oh, when we die----!
   (It's too late---------,    when we die------!)

         Am7 D7sus4 D7 G G4 G G4 
To ad - mit we don't  see  eye to eye---------!  |  /  /  /  /  |


         G G4 G G4 Cmaj7 C Cmaj7 C 
So we open up a quarrel...   between the present and the past,
              G G4 G G4 Cmaj7 C Cmaj7 C 
We only sacrifice the future,     it's the bitterness that lasts,
          Fmaj7 
So don't yield to the fortunes... you sometimes see as fate,
         Am7 
It may have a new perspective... on a different day,
            D7sus4 D7 D7sus4 D7 G G4 
And if you don't give up, don't give in, you may just be o