Tag: young

Mind Over Matter chords – Young The Giant

 


INTRO

 C G Em 


VERSE

 C               
Mind over matter
                                   G Em 
Does it matter to any of us?
             C            
Don't change the subject
           G Em 
I'm heavy on your love
 Am C G 
I missed that train, New York city - it rains!
 Am G 
Fly to east L.A. in big jet planes
                 Em 
You know you're on my mind


CHORUS

 Am 
And if the world don't break
 C G 
I'll be shakin' it
 Am G Em 
'Cause I'm a young man after all 
 Am       
And when the seasons change
 C G 
Will you stand by me?
 Am G Em 
'Cause I'm a young man built to fall 

VERSE 

 C 
Mind over matter,
                   G Em 
I'm in tatters thinkin' about her
 C 
Taste my disaster
        G Em 
It's heavy on my tongue
 Am 
All the lights aglow
    C G 
Tokyo   snows
 Am        
Go to watch the show
     C            
Curtain's closed!
                G 
I'm watching you this time

CHORUS 
 Am 
And if the world don't break
 C G 
I'll be shakin' it
 Am G Em 
'Cause I'm a young man after all 
 Am       
And when the seasons change
 C G 
Will you stand by me?
 Am G Em 
'Cause I'm a young man built to fall 


 Am C G 
I missed that train, New York city - it rains!
 Am G 
Fly to east L.A. in big jet planes
                 Em 
You know you're on my mind
 Am 
All the lights aglow
    C G 
Tokyo   snows
 Am        
Go to watch the show
     C            
Curtain's closed!
                G 
I'm watching you this time


 C G 
Mind over matter
 C G 
Mind over matter,
You know you're on my mind!

 Am C G Am G Em -----Chorus

When You Were Young Tabs by Killers V9

 When You Were Young - The Killers

http://www.youtube.com/watch?v=f7-R95BhZGw  this is my cover

Tuning: Half Step Down

Chord Index:
A5:    x-12-14-14-x-x--------------------------------------------|
Am:    x-7-7-0-5-0-----------------------------------------------|
Am*:   x-0-2-2-1-x-----------------------------------------------|
Amin:  x-12-14-0-13-x--------------------------------------------|
B5:    x-2-4-4-x-x-----------------------------------------------|
C:     x-10-10-0-8-0---------------------------------------------|
C/B:   x-2-0-0-1-x-----------------------------------------------|
C*:    x-3-2-0-1-x-----------------------------------------------|
C5:    x-15-17-17-x-x--------------------------------------------|
Cmaj:  x-15-14-0-13-x--------------------------------------------|
D5:    x-5-7-7-x-x-----------------------------------------------|
E5:    x-7-9-9-x-x-----------------------------------------------|
F:     x-3-3-0-1-0-----------------------------------------------|
F5:    x-8-10-10-x-x---------------------------------------------|
Fadd9: x-8-10-0-10-x---------------------------------------------|
G:     x-5-5-0-3-0-----------------------------------------------|
G*:    3-2-0-0-0-x-----------------------------------------------|
G:     3-0-0-0-3-3-----------------------------------------------| (open)
G5:    x-10-12-12-x-x--------------------------------------------|
-----------------------------------------------------------------|
eb|-10-------x-x-------------------------------------------------|
bb|-10-------x-x-------------------------------------------------|
gb|-0--------x-x-------------------------------------------------|
db|-7--------x-x-------------------------------------------------|
ab|-8--------x-x-------------------------------------------------|
Eb|-x--------x-x-------------------------------------------------|

F G Am C F x2
Intro riff:
eb|---------5-----------------5-------------|
bb|------------8-----------------8----------|
gb|------5--------4--------5----------------|
db|---7-----------------7-----------7----7\-|
ab|-----------------------------------------|
Eb|-----------------------------------------|
Verse 1: no guitar  You sit there in your heartache Waiting on some beautiful boy to To 
save you from your old ways You play forgiveness Watch it now - here he come

Chorus 1:       Fadd9        Gmaj        Amin          Cmaj       Fadd9
eb|------------------------------------------------------------|
bb|------10-----------12----------13-----------13---------10---|
gb|-------0-----------0-------------0-----------0----------0---|
db|---10-----------12----------14----14------14----------7-----|
ab|-8-----------10----------12------------15------15\--8-------|
Eb|------------------------------------------------------------|

He doesn't look a thing like Jesus But he talks like a gentlemen Like you imagined
F        G  Am  C  F
when you were young
Verse 2: (palm mute the chords)
F5
Can we climb this mountain
G5   A5
I don't know C5
F5
Higher now than ever before
F5                          G5      A5
I know we can make it if we take it slow
C5
Let's take it easy
F5
Easy now, watch it go

Chorus 2:       Fadd9         G         Am           C           Fadd9
eb|--------------------------------------------------------------|
bb|------10-----------12----------13-----------13---------10-----|
gb|-------0-----------0-------------0-----------0----------0-----|
db|---10-----------12----------14-----14-----14---------7--------|
ab|-8-----------10----------12------------15------15\-8----------|
Eb|--------------------------------------------------------------|

We're burning down the highway skyline On the back of a hurricane that started turning
F        G  Am  C  F
When you were young
F        G  Am  C  F
When you were young
Fadd9         G           Am           C          Fadd9

eb|-------------------

Young Legs intro Tabs by Anthony Green

 Haven't quite figured out the verses, but here's the intro and the "What did you see 
Martha Lee?" part

Standard tuning, capo on 3

e---0------0-0-----0--------------|
B---0------1-1-----1--------------|
G---0------2-0h2p0-0--------------|
D---2-000--2-2-----2--------------|  Repeat this a few times then this:
A---2-xxx--0-0-----0--------------|
E---0-223-------------------------|


e---0------0--0------------------|
B---0------1/-3------------------|
G---0------2/-4------------------|
D---2-000--2/-4------------------|  This leads into the verse
A---2-xxx--0--0------------------|
E---0-223------------------------|

Too Old To Die Young Tabs by Brother Dege

  Too Old to Die Young By Brother Dege
 And thanks to Eric Legaud, an awsome Frenchmen, for this tabs. 

Open E tuning
Capo 3rd frett

Slider/bottleneck is needed in the chorus. 
Brother Deege uses a steel one, but glass works almost in the same way for untrained ears. 
You can also use brass or ceramic, which will create a different, but still awsome sound. 

Video lesson: http://www.youtube.com/watch?v=bJBp3WSJKCI

Intro: Repeat 2 times
E |-0-------------------------------|--------------------------------|
B |-0---0---0-------0-----------0---|------0---0-------0-------------|
G#|-3---3---1---0---1---0---0---3---|-(3)--3---1---0---1---0---0---0-|
E |-0-----------3-------3---0-------|--------------3-------3---0---0-|
B |-0-------------------------------|--------------------------------|
E |-0-------------------------------|--------------------------------|

E |---------------------------------|--------------------------------|
B |-0---0---0-------0---------------|------------------0---0---0-----|
G#|-3---3---1---0---1---0---0---0---|------0---0-------1---3---1-----|
E |-------------3-------3---0---3---|-(3)--3---0---0-----------------|
B |---------------------------------|--------------3-----------------|
E |---------------------------------|--------------------------------|

Bridge: (/ -slide with slider/bottleneck)
E |-0---0---x--/3--/3---0--/3---0---|-0---0---x--/5--/5---0--/3---0--|
B |-0---0---x--/3--/3---0--/3---0---|-0---0---x--/5--/5---0--/3---0--|
G#|-x---x---x--/3--/3---0--/3---0---|-x---x---x--/5--/5---0--/3---0--|
E |-0---0---x--/3--/3---0--/3---0---|-0---0---x--/5--/5---0--/3---0--|
B |-0---0---x--/3--/3---0--/3---0---|-0---0---x--/5--/5---0--/3---0--|
E |-0---0---x--/3--/3---0--/3---0---|-0---0---x--/5--/5---0--/3---0--|

E |-0---0---x--/3--/3---0--/3---0---|-/3--3---3---0--/5---5---0---0--|
B |-0---0---x--/3--/3---0--/3---0---|-/3--3---3---0--/5---5---0---0--|
G#|-x---x---x--/3--/3---0--/3---0---|-/3--3---3---0--/5---5---0---0--|
E |-0---0---x--/3--/3---0--/3---0---|-/3--3---3---0--/5---5---0---0--|
B |-0---0---x--/3--/3---0--/3---0---|-/3--3---3---0--/5---5---0---0--|
E |-0---0---x--/3--/3---0--/3---0---|-/3--3---3---0--/5---5---0---0--|

Chorus 1/2: Play the first part 3 times, the second part 1 time. 
E |-0---0---x---x---x-|             |-/3--3---3---0--/5---5---0---0--|
B |-0---0---x---x---x-|             |-/3--3---3---0--/5---5---0---0--|
G#|-x---x---x---x---x-|             |-/3--3---3---0--/5---5---0---0--|
E |-0---0---x---x---x-|             |-/3--3---3---0--/5---5---0---0--|
B |-0---0---x---x---x-|             |-/3--3---3---0--/5---5---0---0--|
E |-0---0---x---x---x-| x3          |-/3--3---3---0--/5---5---0---0--| x1

Bridge: (/ -slide with slider/bottleneck)
E |-0---0---x--/3--/3---0--/3---0---|-0---0---x--/5--/5---0--/3---0--|
B |-0---0---x--/3--/3---0--/3---0---|-0---0---x--/5--/5---0--/3---0--|
G#|-x---x---x--/3--/3---0--/3---0---|-x---x---x--/5--/5---0--/3---0--|
E |-0---0---x--/3--/3---0--/3---0---|-0---0---x--/5--/5---0--/3---0--|
B |-0---0---x--/3--/3---0--/3---0---|-0---0---x--/5--/5---0--/3---0--|
E |-0---0---x--/3--/3---0--/3---0---|-0---0---x--/5--/5---0--/3---0--|

E |-0---0---x--/3--/3---0--/3---0---|-/3--3---3---0--/5---5---0---0--|
B |-0---0---x--/3--/3---0--/3---0---|-/3--3---3---0--/5---5---0---0--|
G#|-x---x---x--/3--/3---0--/3---0---|-/3--3---3---0--/5---5---0---0--|
E |-0---0---x--/3--/3---0--/3---0---|-/3--3---3---0--/5---5---0---0--|
B |-0---0---x--/3--/3---0--/3---0---|-/3--3---3---0--/5---5---0---0--|
E |-0---0---x--/3--/3---0--/3---0---|-/3--3---3---0--/5---5---0---0--|

Chorus 1/2: Play the first part 3 times, the second part 1 time. 
E |-0---0---x---x---x-|             |-/3--3---3---0--/5---5---0---0--|
B |-0---0---x---x---x-|             |-/3--3---3---0--/5---5---0---0--|
G#|-x---x---x---x---x-|             |-/3--3---3---0--/5---5---0---0--|
E |-0---0---x---x---x-|             |-/3--3---3---0--/5---5-

Only Love Can Break Your Heart chords – Neil Young V6

 Capo 1st

(Intro and between verses:  G ,  Bm ,  Am ,  C )

         G Bm 
You're soulful honey, razor blade sweet
       Am C 
Your ghost is a trip in red velvet sheets
           G Bm 
I've got nickels and dimes if you've got free time
           Am C 
You're a careless sweetheart, kissing for keeps
   G Bm 
Pretty page, bottomless moonshine girl
     Am C 
She came to the funeral in sweet baby pearls
      G D 
I'm back from the dead, I heard what you said
           Em A 
You're so high strung baby, you could wind up the world
               C 
But it's all right mom, I'm coming home tonight

 G Bm C 
Yeah, yeah, it's all right mom, Jesus could be right
 G Bm C 
Yeah, yeah, it's all right mom, the war ain't mine to fight
 G Bm Bbm Am 
Yeah, yeah,      I'm just a fool now baby
 Bm Bbm Am C 
I've got a  bit more than a doubt

          G Bm 
You're ghastly darling, cookies and cream
         Am C 
You're speaking in tongues but I know what you mean
        G D 
Do I still have to wait for true love and hate
          Em A 
You're a ballbreaker baby, Such a cast iron queen
               C 
But it's all right mom, I'm coming home tonight

 G Bm C 
Yeah, yeah, it's all right mom, Jesus could be right
 G Bm C 
Yeah, yeah, it's all right mom, the war ain't mine to fight
 G Bm Bbm Am 
Yeah, yeah,      I'm just a fool now baby
 Bm Bbm Am C 
I've got a  bit more than a doubt

  G Bm 
Multitude baby, of guesses and schemes
     Am C 
You cut me in 2 but I come back in 3s
               G D 
With all the devils insane that the heavens contain
             Em A 
I picked a good one to love me, sweet, so fucking insane
               C 
But it's all right mom, I'm coming home tonight

 G Bm C 
Yeah, yeah, it's all right mom, Jesus could be right
 G Bm C 
Yeah, yeah, it's all right mom, the war ain't mine to fight
 G Bm Bbm Am 
Yeah, yeah,      I'm just a fool now baby
 Bm Bbm Am C G Bm Am 
I've got a  bit more than a doubt
             C G Bm C G 
I've got a bit more than a doubt

Young And Beautiful chords – The Moon Loungers

 Young and Beautiful - Cover by the Moon Loungers

The Moon Loungers:
www.themoonloungers.com

https://www.facebook.com/TheMoonLoungers
 

VERSE 1 
        
               Fmaj7 G Am C       
I've seen the world, done it all, had my cake now
    Fmaj7 G Am C       
Diamonds, brilliant, and Bel-Air now
            Fmaj7 G C Am       
Hot summer nights mid July when you and I were forever wild
           Fmaj7 G Am C       
The crazy days, the city lights, the way you'd play with me like a child


CHORUS 1

 Fmaj7 G Am C       
Will you still love me when I'm no longer young and beautiful?
 Fmaj7 G Am C       
Will you still love me when I got nothing but my aching soul?
            Fmaj7 G Am C       
I know you will, I know you will, I know that you will
                Fmaj7 G Am C       
Will you still love me when I'm no longer beautiful?


VERSE 2 

               Fmaj7 G Am C       
I've seen the world, lit it up as my stage now
       Fmaj7 G Am C       
Channeling angels in, the new age now
            Fmaj7 G C Am       
Hot summer days, rock and roll, the way you'd play for me at your show
             Fmaj7 G Am C       
And all the ways I got to know your pretty face and electric soul
        

CHORUS 2 (As Chorus 1)


VERSE 3
        
      Fmaj7 G Am C       
Dear Lord when I get to heaven please let me bring my girl
          Fmaj7 G Am C       
When she comes tell me that you'll let me, Father tell me if you will
         Fmaj7 G C Am       
Oh that grace, oh that body, oh that face makes me wanna party
          Fmaj7 G Am C       
She’s my sun, she makes me shine like diamonds


CHORUS 3
                               
 Fmaj7 G Am C       
Will you still love me when I'm no longer young and beautiful?
 Fmaj7 G Am C       
Will you still love me when I got nothing but my aching soul?
            Fmaj7 G Am C       
I know you will, I know you will, I know that you will
                 Fmaj7 G Am C       
Will you still love me when I'm no longer beautiful?
                 Fmaj7 G Am C       
Will you still love me when I'm no longer beautiful?
                 Fmaj7 G Am C        
Will you still love me when I'm no longer beautiful?



Please note: The Moon Loungers’ acoustic version is played in the key of C, 
which is a tone lower than the original; to play along with 
the Lana Del Rey version using these chords, place your capo on the 2nd fret.

Text Me Texas chords – Chris Young V2

 Intro:  G ,  Bm ,  Am  (x2)


 G Bm Am   
Who's in Houston that's keeping you from talking to me
                 G Bm 
I ain't used to laying down without the sound of your voice
                            Am 
Before I drift off to sleep.
 Bm Cadd9 
Girl, you got me climbing the walls
 Bm Cadd9 
if you can't find the time to call

             G Bm 
Come on and Text me, Texas
         Am                
Before you turn off your phone
       G Bm 
I'm a wreck and I'm restless
        Am                           
Got a feeling that you're not alone
        Em7 Bm Cadd9 
It's breaking my heart and I'm starting get the message

Come on and text me, Texas


Repeat Intro (X1)


I pray what you ain't saying don't mean what all my friends say it means
Maybe you can give me just a couple of lines I could read between
You could even tell me a lie
Anything to get me by


Repeat Chorus


      Bm Cadd9 
Whatever you can't tell me now
      Bm Cadd9 
Baby, you could spell it out


Repeat Chorus

Warriors chords – En Young

 intro:
 Gm F Eb Eb Dm  (x2)

 Gm Cm Gm Bb Cm 

Chorus:
 Gm 
We are warriors
 Bb Am Gm 
We're fighting for all goodness sake
 Bb Am Gm 
Ah well we are warriors
 Bb Am Gm Eb Dm 
It's goodness from people we'll take

Verse:
 Gm Bb Am Gm Bb Am 
We are warriors, we're fighting for freedom
 Gm Bb Am Gm Bb Am 
We stand arm and arm with this message of love
In my eyes God is everything
Even every little being
When things happen, do you feel it was Him
He'll answer to every little sin
But for now we're warriors
Fighting for all goodness sake
Ah well, we are warriors
It's goodness from people we'll take

One day we will leave this place
And I pray for God's grace
Trumpets will sound, sweet harmony
That is the place I want to be, but for now
We're warriors
We're fighting for all goodness sake
Ah well we are warriors
It's goodness from people we'll take

Bridge:
 Cm F Gm 
In God's sight we move on and well
 Cm F Gm Bb Am 
Well until that day we meet again

Chorus
Bridge
Chorus

, I hope it is well made. If you have any suggestions, please 
comment ;) Peace!
Artist's Website: http://rootsmusician.com/#/en-young/4541076108

Crystallized chords – Young The Giant V2

 This sounds close enough I hope you guys enjoy it

 C : 032010
 Em : 022000
 Am : 002210
 F : 133211
 G : 320033
 Dm : 000231


Intro:  C Em Am F  2x

 Dm C G 
Crawl back to life,
                   F 
It's been far too long
 C G 
Crystallized
                   Dm 
Round interstellar Moons
 C G F 
Seed of light into your atmosphere
            C G 
What's your World like?
                      Dm C G 
Is the house we've built still here?

Girl you know

           C       
When the beat of my drum
           Em 
Meets the beat of your heart
        Am F 
You know I couldn't love any other - any other
          C 
This is where I come from
        Em 
This is where I belong,
           Am 
With the beat of your drum
      F 
Not any other

 Dm C G 
Fall through the sky
                   F 
Little specks below
 C G Dm 
Magnify - the further down I go
         C G 
I feel it in my bones
                F 
Can you feel too?
               C G 
Is this the world I know?
                     Dm C G 
Is the house we've built still here?
                F C G 
Is the human race sincere?

           C       
When the beat of my drum
           Em 
Meets the beat of your heart
        Am F 
You know I couldn't love any other - any other
          C 
This is where I come from
        Em 
This is where I belong,
           Am 
With the beat of your drum
      F 
Not any other

 F C G 
Feel the force of time
                    F 
Weighing down my mind
     C G F 
Tears you cry, screaming at the sky
    C G 
Come outside,
                       F C G 
The rays are shinning br-i-ght

 C Em Am F C Em Am F C 
Not any other
            Em Am F 
Feels like hooooooome
            C Em Am F 
Where I belooooooong

Oh oh

           C       
When the beat of my drum
           Em 
Meets the beat of your heart
        Am F 
You know I couldn't love any other - any other
          C 
This is where I come from
        Em 
This is where I belong,
           Am 
With the beat of your drum
      F 
Not any other

 F C G 

(Dedicated to GB)

Motorcycle Mama chords – Neil Young

 Motorcycle Mama


 A 
Motorcycle Mama won't you lay your big spike down.
                                              E7 
Motorcycle Mama won't you lay your big spike down.
 A 
I always get in trouble when you bring it around.
 D9 
Motorcycle Mama won't you lay it down.
 A E7 A 
Ooh, ooh, ooh, o-o-ooh, ah-ah-aah.


 A E7 A 
I'm running, I'm running, I'm running down that proud highway.
                                                      D9 E7 
Yeah I'm running, I'm running, I'm running down that proud highway.
    A D7 
As long as I keep on moving, I won't need a place to stay.
 A E7 A 
Ooh, ooh, ooh, o-o-ooh.


 A 
Motorcycle Mama won't you lay your big spike down.
                                              E7 
Motorcycle Mama won't you lay your big spike down.
 A 
I always get in trouble when you bring it around.
 D9 
Motorcycle Mama won't you lay it down.

 A E7 A A E7 A 
Well I'm here to deliver, I hope that you can read my mail, oh yeah.
                                                  E7 
I just escaped last night from the Memery County jail.
            A 
I see your box is open and your flag is up.
 D9 
My message is ready if there's time enough.
 A E7 A 
Ooh, ooh, ooh, o-o-ooh, ah-ah-aah.


 A 
Motorcycle Mama won't you lay your big spike down.
                                              E7 A 
Motorcycle Mama won't you lay your big spike down.

 A D9 
Motorcycle Mama won't you lay it down.
 A E7 A     
Ooh, ooh, ooh, o-o-ooh, ah-ah-aah.

 A E7 D9 A 


If you ride a motorcycle, you gotta learn this one. Enjoy!


 A  = 002220   D9  = 000210   E7  = 020100   D7  = 000212

Wasting My Young Years Tabs by London Grammar

 -------------------------------------------------------------------------------
                             Wasting My Young Years - London Grammar
-------------------------------------------------------------------------------
: MGBZH

Tuning: Standard



Simple but listen carefully the verses, the rythm changes slightly between lines.



  Verse

e|---------------------------------------------------------------------------|
B|---------------------------------------------------------------------------|
G|---------------------------------------------------------------------------|
D|-14---17---19---21-21-19-/-17-14---x3------14---17---19--------------------| 
A|---------------------------------------------------------------------------|
E|---------------------------------------------------------------------------|


 Chorus

e|---------------------------------------------------------------------------|
B|---------------------------------------------------------------------------|
G|-5-5-5-5-------4----------------2-2-2-2--2-2-2-2---------------------------| 
D|---------------------------------------------------------------------------|
A|---------------------------------------------------------------------------|
E|---------------------------------------------------------------------------|
 P.M.-----------------------------------------------------
  
  I'm wasting my young years      it doesn't matter here
  I'm chasing    old ideas        it doesn't matter here


e|---------------------------------------------------------------------------|
B|---------------------------------------------------------------------------|
G|---5---5---5---5h7p5----4---4---4---4-----2---2---2---2---2---2---2--------| x2
D|-7---7---7---7--------5---5---5---5-----4---4---4---4---4---4---4----------|
A|---------------------------------------------------------------------------|
E|---------------------------------------------------------------------------|
  P.M.----------------------------------------------------------------- 
                      Maybe We are       We are          Maybe I'm wasting my 
   young years       Maybe We are       We are 

   
  Maybe I'm wasting my  young years 

Paddys Green Shamrock Shore chords – Young Dubliners V2

 D D C G D          x2

     D D C G D D 
And fare-thee-well, to Ireland, the land of my native home
    G C D C G  
It breaks my heart for to see friends part, for it's then the teardrops fall
    G C D  
I'm on my way to Amerikay, 
 D C G 
will I ever see home once more
         D D 
For I'm leaving behind the one I love
    C G D  
on Paddy's green shamrock shore.

repeat INTRO 

Same strum pattern and chords throughout the rest of the song

The ship she lies in anchor, standing by the quay
May fortune bright shine down each night, as we sail out over the sea
Many ships have been lost, many lives it cost
on the journey that lies before
With a tear in my eye I'm bidding good-bye 
to Paddy's Green shamrock shore

INTRO

So fare thee well my own true love, I'll think of you night and day
And a place in my mind you surely will find, although I am far away
Though I'll be alone far away from my home
I'll think of the good times once more
Until the day I can make my way back to
Paddy's green shamrock shore

INTRO 

Instrumental (same chord pattern as verses)

And now the ship is on the wave may heaven protect us all
With the wind in our sail well we surely can't fail 
on the voyage to Baltimore
my parents and friends they did wave till the end
till I could see them no more
then I took a chance, took one last glance 
at Paddy's green shamrock shore
      D D  (hold)
then I took a chance, took one last glance 
    C  (hold)       G  (hold)        D  (hold)
at Paddy's green shamrock shore

Billy Died chords – Young Rebel Set V2

 Young Rebel Set - Billy Died

CAPO on 4th fret.


 C G7 C G7       
I am feeling lost in my own town
      C G7 C G7 
And there's no place I want to settle down
 Am Em 
I am lost without a love
 Am Em 
or an answer from above
 F G C 
does someone know an easier way out


      C G7 C G7 
And in my darkest hour of despair
      C G7 C G7 
I'm only glad she wasn't there
 Am Em 
See me as the lights went out
 Am Em 
and all that I could think about
 F G C 
was where she was and does she really care



Ref.:
 F C Em 
Billy died of a broken heart
 F C Em 
Couldn't bear to be apart
 F G C 
from the one he loved too much

 F C Em 
Billy died of a broken heart
 F C Em 
Couldn't bear to be apart
 F G C 
from the one he loved too much



When I break out of this iron cast

I'll lay all of my ghosts in the past

Friends that I thought I knew

Where were you when I needed you

And lovers that had torn me apart



It seems the more I chase the further you run

Faster than a bullet from a gun

That shot me through this heart of stone

Now all that's left is skin and bones

I tell you this is the end for me



Ref.:

Billy died of a broken heart

Couldn't bear to be apart

from the one he loved too much


Billy died of a broken heart

Couldn't bear to be apart

from the one he loved too much

Innocent And Young chords – Lunafly

 Gm Eb Bb F 
Do you remember living life without a care
And never thinking about how to become multimillionnaires

Oh we were crazy and in love
And we did everything everything life would bring
Oh flying through the sky above
And I lived naive and so young

Didn’t wanna say goodbye to you
Didn’t ever wanna go
Can we live again all immature and free
Like we did not long ago
Help me find a way now way now
To go back to that day now day now
Wanna go back through the hands of time
We were innocent and young

Do you remember living on the edge of life
And we would do everything we wanted to oh we felt alive

Oh we were crazy and in love
And we did everything everything life would bring
Oh flying through the sky above
And I lived naive and so young

Didn’t wanna say goodbye to you
Didn’t ever wanna go
Can we live again all immature and free
Like we did not long ago
Help me find a way now way now
To go back to that day now day now
Wanna go back through the hands of time
We were innocent and young

And now I’m stuck inside this hole
Somebody save my soul
I think that all my time was stole

(I miss you everything we set on fire
We flew higher and higher and higher
And fulfilled every single desire
Don’t wanna ever retire)

Do you remember living on the edge of life
And we would do everything we wanted to oh we felt alive

Didn’t wanna say goodbye to you
Didn’t ever wanna go
Can we live again all immature and free
Like we did not long ago
Help me find a way now way now
To go back to that day now day now
Wanna go back through the hands of time
We were innocent and young



Read more: http://www.liriklagubagus.net/lunafly-innocent-and-young-eng-ver.html#ixzz2oYfHyb3Z

Young Statues – Bumble Bee chords

 Capo 5



 C Am F C E 
Baby don't you call right away, I'll find you out

           Am F C 
I've got nothing to lose, I'm too proud

 C Am 
Stick around for just now

           F C E 
All my minutes passing faster with a force

          Am F C 
I don't want you but I don't want you to go away



            G Am 
I fill an old void,

    F C G       
Oh I - I can't change my mind

     Am F C 
And I can't tell you which one you're gonna find



 C  -  Am  -  F  -  C  (2x)



 C Am F 
Come on now, I'll take you out to the bar

        C E 
You'd rather stay inside?

    Am F C 
I know that kind of time is hard to find
 
 C Am F C E 
Stick around for just now till I figure out what I want you to be

          Am F C 
I don't need truth but I don't want you to lie to me



     G G F               
Now I can't get away, can't be a voice

 G G F C 
I can't get away, I can't make a mind of yours

              F C F C E F 
Can't make a mind of yours, can't make a mind of yours



           G Am 
I fill an old void,

    F C G 
Oh I - I can't change my mind

     Am F C 
And I can't tell you which one you're gonna find

 G Am F C G 
I can't be sure, I can't be sure,

 Am F C 
I can't tell you which one you're gonna find.

Young Volcanoes chords – Fall Out Boy V8

 Okay, so I've seen a few other tabs of this song and I wasn't happy with how they 
sounded. This is based on the acoustic show that Patrick and Andy did at the Bing Live Lounge. 
Standard Tuning I think.
P.S. The G/C can also be played as just a G or a G6. They all sound good and I couldn't 
decide which one sounded best. So you decide.


Verse:
      C F 
When Rome's in ruins
 C G/C 
We are the lions
 C F C G/C 
Free of the coliseums.
    C F 
In poison places,
    C G/C 
We are anti-venom,
 C F C G/C 
We're the beginning of the end


Pre-Chorus:
   C G/C 
Tonight the foxes hunt the hounds,
    G/C C F 
And it's all over now before it has begun,
               C 
We've already won.


Chorus:
    C F C G/C F 
We are wild, we are like young volcanoes
    C F C 
We are wild, Americana, exotica
 G/C C F 
Do you wanna feel a little beautiful baby? Yeah!
 C F C G/C 
Oh!



Verse:
Come on
Make it easy, say I never mattered
Run it up the flagpole
We will teach you how to make boys next door
Out of assholes
(Ha Ha)


Pre-Chorus:
Tonight the foxes hunt the hounds,
And it's all over now before it has begun,
We've already won.


Chorus:
We are wild, we are like young volcanoes
We are wild, Americana, exotica
Do you wanna feel a little beautiful baby? Yeah!
Oh!

We are wild, we are like young volcanoes
We are wild, Americana, exotica
Do you wanna feel a little beautiful baby? Yeah!
Oh!

When I Was Young Tabs by Blink 182 V3

 Intro

-------------------------------|
-------------------------------|
-----11------------8-----------|
-8/9----9-8/9--8/9---11-8/9----|
-------------------------------|
-------------------------------|

Verse

------------------------------|
-------------------------7----|
-8/4-4-4--8/4-4-4--4/6-6-6----| (X3) *when you listen closely, you can hear
-X/X-X-X--X/X-X-X--X/X-X-X----|       the note on the B string at the end
-6/2-2-2--6/2-2-2--2/4-4-4----|
------------------------------|

Chorus

------------------------------|
------------------------------|
-4---6---8--------------------|
-4-4-6-6-8-2------------------|  (X2)
-2-4-4-6-6-2------------------|
---2---4---0------------------|

verse (X3)

Chorus (X4)

Bridge

-----------------------------|
-------4--2------------------|
-8--9--4--4------------------|
-9--9--X--X------------------|  (X2)
-6--7--2--4------------------|
-----------------------------|

Chorus (4X)

that's it, you can figure the strumming out!

Bones Acoustic chords – Young Guns V2

 -------------------------------------------------------------------------------
                             Bones - Young Guns
-------------------------------------------------------------------------------
: FuzzyYoda
Email:

Tuning:Half-Step Down

Chords:
     Ebm F# Db B Abm Db /3  Cb Ebm (alt)
eb |-3-|-3-|-2-|-3-|-0-|-3-|-0-|-0-|    |
Bb |-3-|-3-|-3-|-3-|-1-|-3-|-1-|-0-|    |
Gb |-0-|-0-|-2-|-0-|-2-|-2-|-0-|-0-|    |
Db |-2-|-0-|-0-|-2-|-2-|-0-|-2-|-2-|    |
Ab |-2-|-2-|-x-|-3-|-0-|-x-|-3-|-2-|    |
Eb |-0-|-3-|-x-|-0-|-0-|-x-|-0-|-0-|    |


intro and verses:
     1&2&3&4&1&2&3&4&1&2&3&4&1&2&3&4&
Eb |-33333333333333333333333222222222|
Bb |-33333333333333333333333333333333|
Gb |-00000000000000000000000222222222|
Db |-2---------------0------0--------|2x
Ab |-2---------------2------x--------|
Eb |-0---------------3------x--------|

 Ebm F# Db 
Down under the night sky
                 Ebm 
I lay in wait
               F# Db Ebm 
Praying to whoever would listen to me.
                   F# 
I'd fashioned my own cross,
      Db Ebm 
Been crushed by it's weight
                         F# 
There's no stronger message
 Db 
Than dirt in your face.

 B Ebm              
I've seen down the end of the road
 Db /3                             B 
Now I deal in a different story, oh
          Ebm Db /3
And I'll never let go again 
                  Abm Cb Ebm (alt) 
I feel it in my bones, bones, bones
   Db Db /3        Abm Cb Ebm (alt   
I feel it in my bones, bones, bones
      Db Ebm Db Ebm Db 
I'll do this on my own. (o-o-own bones bo-o-nes own o-o-own bones)

 Ebm (hold)                   
They say the spirit's willing
         F# (hold)         Db 
But the flesh is always weak
 Ebm F# Db 
Well I found everything I needed right beneath my skin - oh.

 B Ebm         
I've seen down the end of the road
 F# Db B 
Now I deal in a different story, oh
            Ebm F#    
And I will never let go again 
                  Abm Cb Ebm (alt) 
I feel it in my bones, bones, bones
   Db Db /3        Abm Cb Ebm (alt   
I feel it in my bones, bones, bones
      Db Ebm   
I'll do this on my own. 

Ebm (3 1/2 measures)

                         
We're all architects of our own private hell
 Db                      
No-one can hurt us like we hurt ourselves


 B Ebm              
I've seen down the end of the road
 Db /3                             B 
Now I deal in a different story, oh
          Ebm Db /3
And I'll never let go again 
                  Abm Cb Ebm (alt) 
I feel it in my bones, bones, bones
   Db Db /3        Abm Cb Ebm (alt   
I feel it in my bones, bones, bones
       Db B Ebm Db B Ebm Db (hold)
And I know I'm not alone. (l-o-ne bones bo-o-nes lone l-o-ne bones)

High School Tabs by Go West Young Man

 High School
Go west Young Man
Official website:  http://gowestyoungmanmusic.com/
Ages

I really like this song so I thought I would
tab it for everyone. Great tune and it is really
fun to play on electric and acoustic.
Feel free to give your feedback!

(intro) x8
E|----------9--------7--------7--------5-------------|    The intro is fairly
B|------10--------7--------9--------7----------------|    straight forward. The
G|--11---------9--------9--------6-------------------|    only hard part would
D|---------------------------------------------------|    be the strum pattern.
A|---------------------------------------------------|    If you listen to the
E|---------------------------------------------------|    song you can get an
                                                        idea.


Verse
E|----------9----------9--------7--------7--------5--------5-----|
B|------10---------10--------9--------9--------7--------7--------|
G|--11---------11---------9--------9--------6--------6-----------|
D|---------------------------------------------------------------|
A|---------------------------------------------------------------|
E|---------------------------------------------------------------|


Chorus (finger picked)
E|----------9--------7--------7--------5------------|
B|------10--------7--------9--------7---------------|
G|--11---------9--------9--------6------------------|
D|--------------------------------------------------|
A|--------------------------------------------------|
E|--------------------------------------------------|
    Pull my chain like you did it in high school
    all the same and we'll do it again
    We'll come around here late like we did it in high school


Back to verse
E|----------9----------9--------7--------7--------5--------5-----|
B|------10---------10--------9--------9--------7--------7--------|
G|--11---------11---------9--------9--------6--------6-----------|
D|---------------------------------------------------------------|
A|---------------------------------------------------------------|
E|---------------------------------------------------------------|


Chorus(2)
E|----------9--------7--------7--------5------------|
B|------10--------7--------9--------7---------------|
G|--11---------9--------9--------6------------------|
D|--------------------------------------------------|
A|--------------------------------------------------|
E|--------------------------------------------------|


Bridge Chords
E|--------5--------5-----| Alternate until the Chorus
B|-----6--------7--------|
G|--7--------7-----------|
D|-----------------------|
A|-----------------------|
E|-----------------------|


Chorus (last) x8
E|----------9--------7--------7--------5------------|
B|------10--------7--------9--------7---------------|
G|--11---------9--------9--------6------------------|
D|--------------------------------------------------|
A|--------------------------------------------------|
E|--------------------------------------------------|

Outrow
E|--------5--------5-----| play until end
B|-----6--------7--------|
G|--7--------7-----------|
D|-----------------------|
A|-----------------------|
E|-----------------------|

Great Is Our God chords – Young Oceans

 Great Is Our God
- Young Oceans

(Capo 5 - Original)

INTRO  Dm    -   G 


VERSE 1
                        C  
Come let us praise Him
                                   G 
Let us kneel at the throne of our God
                                         F 
Through His Son our salvation was bought
                             C 
With mercy and grace. 
                      C 
Come let us bow down
                                    G 
In His hands are the depths of the earth
                                        F 
With one voice we proclaim His great worth
 Am G 
Lord our God                        


CHORUS
                     Dm        
And we will seek Him
                           F 
Our Rock of Salvation
                        C 
Morning by morning
                                        G 
With Thanksgiving we come
                    Dm 
And we will bow down
                             F 
With creation we cry out
                            C 
In daylight and darkness
                           G 
We sing to the Lord

TAG             
                       Dm 
Great is our God
                        G 
Great is our God
                      Dm   -   F   -   C 
Great is our God

VERSE 2
Lord of all nations
We will stand at the end of our days
In your courts and declare your great ways
In Spirit and Truth
We long for your kingdom
Bring your thunder and gather the earth
All who tremble will tell of Your worth   
Lord our God

CHORUS
                       Dm G   (3x)
Great is Our God, Great is Our God
                        Dm   -   F   -    C 
Great is Our God