Tag: yourself

Give Yourself A Try piano chords by The 1975

[Verse 1]
            B                      D#m      E
You learn a couple things when you get to my age
      B                           D#m                    E
Like friends don't lie and it all tastes the same in the dark
          B                       D#m                       E
When your vinyl and your coffee collection is a sign of the times
               B               D#m         E
You're getting spirituality enlightened at 29


[Chorus]
        B         D#m    E
So just give yourself a try
          B       D#m     E
Won't you give yourself a try?
          B        D#m    E
Won't you give yourself a try?
          G#m      F#   E
Won't you give?


[Verse 2]
   B            D#m              E
I found a grey hair in one of my Zoots
      B                    D#m                 E
Like context in a modern debate I just took it out
    B                 D#m                         E
The only apparatus required for happiness is your pain and fucking going outside
            B         D#m                E
And getting STD's at 27 really isn't the vibe
 B                D#m     E
Jane took her own life at 16,
          B               D#m                  E
She was a kid who had the box tattooed on her arm
    B      D#m      E
And I was 25 and afraid to go outside
  B              D#m          E
A millenial that baby-boomers like


[Chorus]
        B         D#m    E
So just give yourself a try
          B       D#m     E
Won't you give yourself a try?
          B        D#m    E
Won't you give yourself a try?
          G#m      F#    E
Won't you give?


[Interlude]

B   D#m    E
B   D#m    E


[Bridge]
     B                                   E
'And what would you say to your younger self?'
           B
Growing a beard's quite hard
                                   E
And whiskey never starts to taste nice
          B                               
And you'll make a lot of money, and it's funny
                                                        E
'Cause you'll move somewhere sunny and get addicted to drugs
           B                                           E
And spend obscene amounts on fucking seeds and beans online


[Chorus]
        B         D#m    E
So just give yourself a try
          B       D#m     E
Won't you give yourself a try?
          B        D#m    E
Won't you give yourself a try?
          G#m      F#     E
Won't you give?


[Outro]

B    D#m     E
B    D#m     E

Love Yourself guitar chords by Justin Bieber

---------------------------------------------------------------
                     CAPO ON 4th FRET
---------------------------------------------------------------

---------------------------------------------------------------
           TRANSPOSE UP +4 TO PLAY SONG WITHOUT CAPO
---------------------------------------------------------------


[Verse 1]

            C              G/B          Am
For all the times that you rain on my parade
            Dm               C        G/B
And all the clubs you get in using my name
              C                  G/B         Am
You think you broke my heart, oh girl for goodness sake
              Dm            C           G/B
You think I'm crying, on my own, well I ain't
                   C           G/B                  Am
And I didn't wanna write a song cause I didn't want anyone thinking I still care
   Dm        C                G/B
I don't but, you still hit my phone up
                 C        G/B              Am
And baby I'll be movin' on and I think you should be somethin'
              Dm         C                G/B
I don't wanna hold back, maybe you should know that


[Pre-Chorus]

              Am           F              C
My mama don't like you and she likes everyone
            Am      F                C
And I never like to admit that I was wrong
                 Am          F               C                G
And I've been so caught up in my job, didn't see what's going on
          Am  F            G
And now I know, I'm better sleeping on my own


[Chorus]

             C        G       Am        F
Cause if you like the way you look that much
        C                 G        C
Oh baby you should go and love yourself
           C          G         Am      F
And if you think that I'm still holdin' on to somethin'
C                 G        C
You should go and love yourself


[Verse 2]

             C                G/B      Am
But when you told me that you hated my friends
         Dm               C           G/B
The only problem was with you and not them
          C             G/B            Am
And every time you told me my opinion was wrong
             Dm             C            G/B
And tried to make me forget where I came from
                   C           G/B                  Am
And I didn't wanna write a song cause I didn't want anyone thinking I still care
   Dm        C                G/B
I don't but, you still hit my phone up
                 C        G/B              Am
And baby I'll be movin' on and I think you should be somethin'
              Dm         C                G/B
I don't wanna hold back, maybe you should know that


[Pre-Chorus]

              Am           F              C
My mama don't like you and she likes everyone
            Am      F                C
And I never like to admit that I was wrong
                 Am          F               C                G
And I've been so caught up in my job, didn't see what's going on
          Am  F            G
And now I know, I'm better sleeping on my own


[Chorus]

             C        G       Am        F
Cause if you like the way you look that much
        C                 G        C
Oh baby you should go and love yourself
           C          G         Am      F
And if you think that I'm still holdin' on to somethin'
C                 G        C
You should go and love yourself


[Instrumental] 

C G Am F
C G C
C G Am F
C G C


[Verse 3]

            C              G/B          Am
For all the times that you made me feel small
          Dm               C          G/B
I fell in love, now I feel nothin' at all
        C                G/B          Am
I never felt so low when I was vulnerable
        Dm              C             G/B
Was I a fool to let you break down my walls?


[Chorus]

             C        G       Am        F
Cause if you like the way you look that much
        C                 G        C
Oh baby you should go and love yourself
           C          G         Am      F
And if you think that I'm still holdin' on to somethin'
C                 G        C
You should go and love yourself
             C        G       Am        F
Cause if you like the way you look that much
        C                 G        C
Oh baby you should go and love yourself
           C          G         Am      F
And if you think that I'm still holdin' on to somethin'
C                 G        C
You should go and love yourself

Love Yourself chords by Justin Bieber

VIDEO TUTORIAL – https://www.youtube.com/watch?v=Gb50IDe1fRo

—————————————————————

                     CAPO ON 4th FRET

—————————————————————

—————————————————————

           TRANSPOSE UP +4 TO PLAY SONG WITHOUT CAPO

—————————————————————

[Verse 1]

            C              G/B          Am

For all the times that you rain on my parade

            Dm               C        G/B

And all the clubs you get in using my name

              C                  G/B         Am

You think you broke my heart, oh girl for goodness sake

              Dm            C           G/B

You think I’m crying, on my own, well I ain’t

                   C           G/B                  Am

And I didn’t wanna write a song cause I didn’t want anyone thinking I still care

   Dm        C                G/B

I don’t but, you still hit my phone up

                 C        G/B              Am

And baby I’ll be movin’ on and I think you should be somethin’

              Dm         C                G/B

I don’t wanna hold back, maybe you should know that

[Pre-Chorus]

              Am           F              C

My mama don’t like you and she likes everyone

            Am      F                C

And I never like to admit that I was wrong

                 Am          F               C                G

And I’ve been so caught up in my job, didn’t see what’s going on

          Am  F            G

And now I know, I’m better sleeping on my own

[Chorus]

             C        G       Am        F

Cause if you like the way you look that much

        C                 G        C

Oh baby you should go and love yourself

           C          G         Am      F

And if you think that I’m still holdin’ on to somethin’

C                 G        C

You should go and love yourself

[Verse 2]

             C                G/B      Am

But when you told me that you hated my friends

         Dm               C           G/B

The only problem was with you and not them

          C             G/B            Am

And every time you told me my opinion was wrong

             Dm             C            G/B

And tried to make me forget where I came from

                   C           G/B                  Am

And I didn’t wanna write a song cause I didn’t want anyone thinking I still care

   Dm        C                G/B

I don’t but, you still hit my phone up

                 C        G/B              Am

And baby I’ll be movin’ on and I think you should be somethin’

              Dm         C                G/B

I don’t wanna hold back, maybe you should know that

[Pre-Chorus]

              Am           F              C

My mama don’t like you and she likes everyone

            Am      F                C

And I never like to admit that I was wrong

                 Am          F               C                G

And I’ve been so caught up in my job, didn’t see what’s going on

          Am  F            G

And now I know, I’m better sleeping on my own

[Chorus]

             C        G       Am        F

Cause if you like the way you look that much

        C                 G        C

Oh baby you should go and love yourself

           C          G         Am      F

And if you think that I’m still holdin’ on to somethin’

C                 G        C

You should go and love yourself

[Instrumental]

C G Am F

C G C

C G Am F

C G C

[Verse 3]

            C              G/B          Am

For all the times that you made me feel small

          Dm               C          G/B

I fell in love, now I feel nothin’ at all

        C                G/B          Am

I never felt so low when I was vulnerable

        Dm              C             G/B

Was I a fool to let you break down my walls?

[Chorus]

             C        G       Am        F

Cause if you like the way you look that much

        C                 G        C

Oh baby you should go and love yourself

           C          G         Am      F

And if you think that I’m still holdin’ on to somethin’

C                 G        C

You should go and love yourself

             C        G       Am        F

Cause if you like the way you look that much

        C                 G        C

Oh baby you should go and love yourself

           C          G         Am      F

And if you think that I’m still holdin’ on to somethin’

C                 G        C

You should go and love yourself

Love Yourself chords – Justin Bieber Vsion 3

 No capo.

The first pick is under placed where it fits to the above lyrics. The following is 
spaced apart accordingly to their distance.
You can hold the complete chords, but i prefer to just hold the three strings 
picked on the barre chords.

x= just tab back into the strings. Occurs mostly right after the pick 
(in verses anyway).

[Verse 1]  
             E B/D# C#m 
For all the times that you rain on my parade
e]------------------------------------------------
B]------------------------------------------------
G]----------1---1-x--------4---4-x-------6---6-x--
D]----------2---2-x--------4---4-x-------6---6-x-- *le artistic break (mostly occurring
A]----------2---2-x--------6---6-x-------4---4-x--  in the last 1/4 of the line.)
E]------------------------------------------------

             F#m E B/D# 
And all the clubs you get in using   my   name
e]------------------------------------------------
B]------------------------------------------------
G]----------2---2-x----------1---1-x------4---4-x----
D]----------4---4-x----------2---2-x------4---4-x---- 
A]----------4---4-x----------2---2-x------6---6-x----  
E]------------------------------------------------

               E B/D# C#m 
You think you broke my heart, oh girl for goodness' sake
e]-----------------------------------------------------
B]-----------------------------------------------------
G]------------1---1-x------------4---4-x------6---6-x--
D]------------2---2-x------------4---4-x------6---6-x-- 
A]------------2---2-x------------6---6-x------4---4-x--  
E]-----------------------------------------------------

               F#m E B/D# 
You think I'm crying on my own, well I ain't
e]-----------------------------------------------
B]-----------------------------------------------
G]------------2---2-x------1---1-x-----4---4-x---
D]------------4---4-x------2---2-x-----4---4-x--- 
A]------------4---4-x------2---2-x-----6---6-x---  
E]-----------------------------------------------

[Pre-Chorus]
                    E B/D# C#m 
And I didn't wanna write a song cause I didn't want anyone thinking I still care

e]--------------------------------------------------------------------
B]--------------------------------------------------------------------
G]-----------------1---1-x------4---4-x-------------6---6-x-----------
D]-----------------2---2-x------4---4-x-------------6---6-x-----------
A]-----------------2---2-x------6---6-x-------------4---4-x-----------
E]--------------------------------------------------------------------

        F#m E B/D# 
     I don't but,  you still hit my phone up
e]-----------------------------------------------
B]-----------------------------------------------
G)-----2---2-x-----1---1-x----------4---4-x------
D]-----4---4-x-----2---2-x----------4---4-x------ 
A]-----4---4-x-----2---2-x----------6---6-x------  
E]-----------------------------------------------

               E B/D# C#m 
And baby I be movin'  on  and I think you should be somethin'
e]----------------------------------------------------------
B]----------------------------------------------------------
G]------------1---1-x----4---4-x----------6---6-x-----------
D]------------2---2-x----4---4-x----------6---6-x-----------
A]------------2---2-x----6---6-x----------4---4-x-----------
E]----------------------------------------------------------

               F#m E B/D# 
I don't wanna hold back,  maybe you should know that
e]----------------------------------------------------
B]----------------------------------------------------
G)------------2---2-x-----1---1-x----------4---4-x----
D]------------4---4-x-----2---2-x----------4---4-x---- 
A]------------

Love Yourself Tabs – Justin Bieber V9

 -------------------------------------------------------------------------------
                           Love Yourself - Justin Bieber
-------------------------------------------------------------------------------
: Ben Delgado

Tuning: Standard


Intro 

   For all times that you....
e|--------------x---------------x--------------x----------------x----------------|
B|----8h9--9----x-------7--7----x------5--5----x------10--10----x----------------|
G|----x---------x-------x-------x------x-------x------x---------x----------------|
D|----x---------x-------x-------x------x-------x------x---------x----------------|
A|----7---------x-------6-------x------4-------x------9---------x----------------|
E|--------------x---------------x--------------x----------------x----------------|

e|------------x--------------x---------------------------------|   (Repeat 4x)
B|----9--9----x------7--7----x---------------------------------|
G|----x-------x------x-------x------------------------------------------------|
D|----x-------x------x-------x------------------------------------------------|
A|----7-------x------6-------x------------------------------------------------|
E|------------x---------------------------------------------------------------|


Pre-Chorus 

   My momma don't like you and she likes everyone...
e|------------x---------------------x-------x--------------------------------|
B|------------x----2----------------x-------x--------------------------------|
G|----6-----6-x----2---------1--1---x--1----x--------------------------------|
D|----6-----6-x----2---------2--2---x--2----x--------------------------------|
A|----4-----4-x--------------2--2---x--2----x--------------------------------|
E|------------x---------------------x-------x--------------------------------|

e|------------x---------------------x-------x--------------------------------|
B|------------x----2----------------x-------x--------------------------------|
G|----6-----6-x----2---------1--1---x--1----x--------------------------------|
D|----6-----6-x----2---------2--2---x--2----x--------------------------------|
A|----4-----4-x--------------2--2---x--2----x--------------------------------|
E|------------x---------------------x-------x--------------------------------|

e|------------x---------------------x-------x--------------------------------|
B|------------x----2----------------x-------x--------------------------------|
G|----6-----6-x----2---------1--1---x--2----x--------------------------------|
D|----6-----6-x----2---------2--2---x--4----x--------------------------------|
A|----4-----4-x--------------2--2---x--4----x--------------------------------|
E|------------x---------------------x-------x--------------------------------|
                             
e|------------x------------------------------------------------------------|
B|------------x----2-------------------------------------------------------|
G|----6-----6-x----2---------22222-------------------------------------------|
D|----6-----6-x----2---------44444-------------------------------------------|
A|----4-----4-x--------------44444-------------------------------------------|
E|------------x------------------------------------------------------------|
                             (^ Strum 5x)

Chorus
        (Listen to song to hear the strumming pattern)
 
    Cause if you like the way you look that much... love yourself...
e|-----------------------------------------------------------|     (Repeat 2x)
B|-----------------------2-----------2-----------------------|
G|----1-----4-----6------2-----1-----2-----1-----------------|
D|----2-----4-----6------2-----2-----2-----2---------------------------------|
A|----2-----2-----4------------2-----------2---------------------------------|
E|---------------------------------------------------------------------------|



Same as intro 

  But when you told me that you hated my friends...
e|--------------x---------------x--------------x----

Have Yourself A Merry Little Christmas chords – Frank Sinatra

 Hey Guys,
these Chords won't fit perfectly to the original song, but they sound pretty god to me if you'd like to sing
 and play. The Chords are derived from the Version Ben Honeycutt plays right here: 
 

EM7   [0 2 0 0 1 0]
Am7   [0 0 2 0 1 0]
Fadd9 [1 0 3 0 1 0]
Dm/F# [2 0 0 2 3 1]
E7    [0 2 0 1 0 0]
Am7/G#[4 0 2 0 1 0]
Amadd9/F#[2 0 0 2 1 0]
G#7   [4 6 4 5 4 4]
A7#   [6 8 6 5 6 6]




 C Em7 Am7 Fadd9 G 
Have yourself a merry little Christmas
 C Em7 Am7 Fadd9 G 
Let your heart be light 
 C Em7 Am7 G7 Dm/F# E7 Am7 Am7/G# Am7/G Amadd9/F# G 
From now on, our troubles will be out of sight

 C Em7 Am7 Fadd9 G 
Have yourself a merry little Christmas
 C Em7 Am7 Fadd9 G 
Make the Yuletide gay
 C Em7 Am7 G7 Dm/F# E7 Am7 Am7/G# Am7/G Amadd9/F# G 
From now on, our troubles will be miles away 

 F Em 
Here were are as in olden days
       Dm/F# C/G E7 
happy golden days of yore
 Am7 E7          
Faithful friends who are dear to us
        F G7 
gather near to us  once more

 C Em7 Am7 Fadd9 G 
Through the years we all will be together
 C Em7 Am7 Fadd9 G 
If the Fates allow
 C Em7 Am7 G7 Dm/F# E7 Am7 Am7/G# Am7/G Amadd9/F# G 
Hang a shining star upon the highest bough
     Fadd9 G G#7  A7#  C 
And have yourself a merry little Christmas now.

Get Lost Find Yourself chords – Chunk No Captain Chunk

 verbesserungsvorschläge sind willkommen!!! :D

Capo 1

PICKINGMUSTER VERSE:

das gleiche pickingmuster auch im pre-chorus :)


          C G D        am        C        em        am
e/-------0------------3---------2---------------0----------------------------
h/-----1---1--------0---0------3-3------1------1-1-------0---------1---------
g/----0-----0------0-----0----2---2----2-2----0---0-----0-0-------2-2--------
d/---------------------------0--------2---2------------2---0-----2---2-------
a/--3--------------------------------0-------3--------2---------0------------
E/---------------3-----------------------------------------------------------

VERSE:
 C G D           am      C 
Somewhere in between the end and the beginning
  em             am
i found a way to finally
 C G D         am       C 
pick up the pieces of the mess i used to be
    em           am   
and sail away to nowhere

PRE-CHORUS:

       G D     am
cause all this time
       G D     am
i've walked the line
     G D  am
but deep inside
       G D C 
i was waiting for a sign


CHORUS:
   G D C G 
I lost my way but i found myself
em        G C G 
hear the sound of open lands
   G D C G 
i guess i belong somewhere else
          em      G C G 
but we're on the ground christ where i stand

VERSE:
   C G D             am     C 
I spent too many nights looking back on my life
    em               am
and faking smiles to everyone
 C G D               am       C      
i used to be the one wondering with outward eyes
    em             am
and trying hard to clear his mind

PRE-CHORUS:

     G D     am
and all this time
      G D    am
i've walked the line
     G D  am
but deep inside 
       G D C 
i was waiting for a sign

CHORUS:

   G D C G 
i lost my way but i found myself
em        G C G 
hear the sound of open lands
   G D C G 
i guess i belong somewhere else
          em      G C G 
but we're on the ground christ where i stand

   
BRIDGE: G D em

     G C 
got lost and found
  D               em
myself doing much better
      G C 
went far from this town
        D            em
and i'm running ever further
     G C 
got lost and found
  D               em
myself doing much better
      G C 
went far from this town
        D            em
and i'm running ever further

Have Yourself A Merry Little Christmas Tabs – Aimee Mann

 Aimee Mann: Have yourself a merry little Christmas      (1/2)

Intro:
E           C#m       F#m          B7
E           C#m       F#m          B7
Verse 1:
E          C#m    F#m           B7
  Have yourself a merry little Christmas
E        C#m       F#m    B7
Let your heart be light 
E          C#m     F#m              B7           
  From now on, our troubles will be out of sight
C#m      C#m    B     B 

Verse 2:
E          C#m     F#m         B7
  Have yourself a merry little Christmas
E        C#m      F#m   B7
Make the Yuletide gay
E          C#m     F#m              B7     
  From now on, our troubles will be miles away 
C#m     G#m   A   F#m

Chorus :
A           A         G#m        G#m
- Here were are as in olden days -
      F#m         F#m    B E    E7
happy golden days -     of yore -
C#m        D#7             G#m        G#m
  Faithful friends who are dear to us  -
       B          B           B    B
gather near to us -  once more
 
Aimee Mann: Have yourself a merry little Christmas              (2/2)

Verse 3:
E             C#m      F#m           B7
  Through the years we all will be together
E        C#m      F#m     B7
  If the Fates allow
E        C#m     F#m            B7           
  Hang a shining star above the highest bough
C#m     G#m   A   F#m
…
    A            A       F#m         B7           
And have yourself -   a merry little Christmas now
C#m      C#m    B     B 
…                   

Solo: (Micha Basseiten der Akkorde)
F#m      F#m    E     E 

A        A      G#m   G#m

F#m      F#m    B     B

Verse 4:
E             C#m       F#m          B7
  Through the years we all will be together
E        C#m      F#m  B7
  If the Fates allow
E        C#m      F#m            B7      
  Hang a shining star upon the highest bough
C#m     G#m   A   F#m
…

    A             A     F#m           B7        
And have yourself -   a merry little Christmas now

Outro:
E           C#m       F#m          B7
E           C#m       F#m          B7
E           C#m       F#m          B7
E           C#m       F#m          B7
 

Lose Yourself To Dance Tabs by Daft Punk V2

 Daft Punk
Lose Yourself to Dance
Random Access Memories

IMPORTANT: Hold 13 while pulling off of 16.

Standard Tuning

 4/4
   E   E    E   E   E      E
|-13--16p-----------------------|
|----------16--14--16b----------|
|-------------------------15----|
|-------------------------------|
|-------------------------------|
|-------------------------------|


 4/4
  Gtr I
   E E E  E E E  E  E  E  E E E  E  E E E
|-16-x-x-16-x-x-16-16-16-16-x-x-16-16-x-x-|
|-14-x-x-14-x-x-14-14-14-14-x-x-14-14-x-x-|
|-13-x-x-13-x-x-13-13-13-13-x-x-13-13-x-x-|
|-15-x-x-15-x-x-15-15-15-15-x-x-15-15-x-x-|
|-13-x-x-13-x-x-13-13-13-13-x-x-13-13-x-x-|
|-----------------------------------------|


   E E E  E E E  E  E  E  E E E  E  E E E
|-16-x-x-13-x-x-13-13-13-13-x-x-13-13-x-x-|
|-14-x-x-14-x-x-14-14-14-14-x-x-14-14-x-x-|
|-13-x-x-13-x-x-13-13-13-13-x-x-13-13-x-x-|
|-15-x-x-15-x-x-15-15-15-15-x-x-15-15-x-x-|
|-13-x-x-13-x-x-13-13-13-13-x-x-13-13-x-x-|
|-----------------------------------------|


   E E E  E E E  E  E  E  E E E  E  E E E
|-16-x-x-13-x-x-13-13-13-13-x-x-13-13-x-x-|
|-13-x-x-13-x-x-13-13-13-13-x-x-13-13-x-x-|
|-13-x-x-13-x-x-13-13-13-13-x-x-13-13-x-x-|
|-13-x-x-13-x-x-13-13-13-13-x-x-13-13-x-x-|
|-11-x-x-11-x-x-11-11-11-11-x-x-11-11-x-x-|
|-----------------------------------------|


   E E E  E E E  E  E  E  E E E  E  E E E
|-16-x-x-13-x-x-13-13-13-13-x-x-13-13-x-x-|
|-13-x-x-13-x-x-13-13-13-13-x-x-13-13-x-x-|
|-13-x-x-13-x-x-13-13-13-13-x-x-13-13-x-x-|
|-13-x-x-13-x-x-13-13-13-13-x-x-13-13-x-x-|
|-11-x-x-11-x-x-11-11-11-11-x-x-11-11-x-x-|
|-----------------------------------------|


   E E E  E E E  E  E  E  E E E  E  E E E
|-16-x-x-13-x-x-13-13-13-13-x-x-13-13-x-x-|
|-11-x-x-11-x-x-11-11-11-11-x-x-11-11-x-x-|
|-11-x-x-11-x-x-11-11-11-11-x-x-11-11-x-x-|
|-11-x-x-11-x-x-11-11-11-11-x-x-11-11-x-x-|
|-----------------------------------------|
|-----------------------------------------|


   E E E  E E E  E  E  E  E E E  E  E E E
|-16-x-x-13-x-x-13-13-13-13-x-x-13-13-x-x-|
|-11-x-x-11-x-x-11-11-11-11-x-x-11-11-x-x-|
|-11-x-x-11-x-x-11-11-11-11-x-x-11-11-x-x-|
|-11-x-x-11-x-x-11-11-11-11-x-x-11-11-x-x-|
|-----------------------------------------|
|-----------------------------------------|


   E E E  E E E  E  E  E  E E E  E  E E E
|-16-x-x-13-x-x-13-13-13-13-x-x-13-13-x-x-|
|-14-x-x-14-x-x-14-14-14-14-x-x-14-14-x-x-|
|-15-x-x-15-x-x-15-15-15-15-x-x-15-15-x-x-|
|-16-x-x-16-x-x-16-16-16-16-x-x-16-16-x-x-|
|-----------------------------------------|
|-----------------------------------------|


   E E E  E E E  E  E  E  E E E  E  E E E
|-16-x-x-13-x-x-13-13-13-13-x-x-13-13-x-x-|
|-14-x-x-14-x-x-14-14-14-14-x-x-14-14-x-x-|
|-15-x-x-15-x-x-15-15-15-15-x-x-15-15-x-x-|
|-16-x-x-16-x-x-16-16-16-16-x-x-16-16-x-x-|
|-----------------------------------------|
|-----------------------------------------|

Be True To Yourself chords – Bobby Vee

 Be True To Yourself:Bobby Vee.
#36 on Cash Box and #34 on BB Hot 100
on LIBERTY Records in 1963.

INTRO:  C G C F Dm F C 

#1.
 E C G E G 
Be true to yourself and you'll always be 
 F 
true to me.
 C Am7 F 
Be true to yourself and you'll be the girl 
      G 
that I want you to be.

BRIDGE:
 G C 
Remember that if another guy catches your 
      G F 
eye, just follow your heart.
   E Am7 F 
I know your heart won't lead you wrong, our 
 D G 
love is much too strong.

#2.
 G C 
I'm not afraid of losing you..I have faith in 
      A 
you, can't you see?
          Dm7 
Darling, be true to yourself and you'll always 
    G C 
be true to me.


INTERLUDE:  C G F G C .. Db Ab 


BRIDGE:
 Ab Db 
Remember that if another guy catches your 
           F# 
eye, just follow your heart.
   F Bb Eb 
I know your heart won't lead you wrong, our 
         Bb         
love is much too strong.

#3.
 F E F Ab F Db 
I'm not a..fraid of losing you..I have faith 
         Bb 
in you, can't you see?
                Ebm Ab 
My darling, be true to yourself, and you'll always 
            Db 
be true to me.


OUTRO:  F# Eb F# Eb .. Db Eb F# Eb .. Db Ab Db ..(Fade.)


A sixties smash from Kraziekhat.

Just Cant Make It By Yourself chords – Barbara Dane And The Chambers Brothers

 Song From Here: http://www.allmusic.com/album/barbara-dane-the-chambers-brothers-mw0000656159

Chorus: 

 A 
Just can't make it by yourself, by yourself, (repeat) 
 A E 
Oh, oh, just can't make it by yourself, by yourself. 
 A 
Father, mother, Sister, brother, 
 D 
You know you're bound to need each other, 
         A E A 
And you just can't make it by yourself, by yourself. 



Verse 1:

 A 
Well now, the rich man can't make it by himself, 
 A E 
Well now, the rich man can't make it by himself, 
 A 
When the world is all on fire, 
 D 
Helping hands are not for hire, 
             A E A 
You better keep your friends, You can't make it by yourself, by yourself. 

 A 
NOW, the poor man can't make it by himself,
 A E 
The poor man can't make it by himself,
 A 
With no one to share his bread/bed, 
S
He'll very soon be dead, 
               A E A 
You know you just can't make it by yourself,(by yourself)

    Chorus

Verse 2:

The big shot can't make it by himself.
The big shot can't make it by himself. 
What's the good of tryin' to be it 
If there ain't no one to see it? 
Well you just can't make it by yourself, (by yourself) 

The humble man can't make it by himself, 
The humble man can't make it by himself,
His heart will break in two one day 
And he won't know what to do because 
It's just too sad to make it by yourself, (by yourself) 

    Chorus

Verse 3:

Colonel Glenn had to make it by himself,
Colonel Glenn had to make it by himself,
He made it to orbit all alone,
But Conrad and Cooper brought it home, 
Well you just can't make it by yourself, by yourself. 

Robinson Crusoe thought he would make it by himself, 
Robinson Crusoe thought he would make it by himself, 
He made it for awhile, but Christ almighty,
Was he glad when he saw Friday, cause he 
Just couldn't make it by himself. 

    Chorus

Have Yourself A Merry Little Christmas chords – Bing Crosby V2

 G Em Am D7 
Have yourself a merry little Christmas
 G Em Am D7 
Let your heart be light 
 G Em Am D7 B7 E7 Am7 D9 
From now on, our troubles will be out of sight

 G Em Am D7 
Have yourself a merry little Christmas
 G Em Am D7 
Make the Yuletide gay
 G Em Am B7 Em G 
From now on, our troubles will be miles away 

 CM7 Bm 
Here we are as in olden days
       Am D7 Gmaj7 
happy golden days of yore
 Em F#7 Bm 
Faithful friends who are dear to us
        D Em Am D7 
gather near to us  once more

 G Em Am D7 
Through the years we all will be together
 G Em Am D7 
If the Fates allow
 G Em Am D7 Em 
Hang a shining star upon the highest bough
     C Am D7 G 
And have yourself a merry little Christmas now.

The Science Of Selling Yourself Short Tabs by Less Than Jake V3

 -------------------------------------------------------------------------------
                             The Science of Selling Yourself Short - Less Than Jake
-------------------------------------------------------------------------------
: Pmdean95
 Pmdean95

Tuning: Standard

Although this song sounds like it's got a lot going on, there's really not. It's
actually very basic. (Keep in mind that this band has horns as well as keyboard which 
both at
times copy the guitar's rhythm sounding very similar to guitar when it's actually not 
guitar while the guitar is doing something different)

Intro: (skank chords)
e|--5-----5-----5------8-----|
B|--6-x2--5-x2--6-x2--10-x2--|
G|--5-----5-----7-----10-----|
D|---------------------------|
A|---------------------------|
E|---------------------------| x2


Verse: (skank chords)
e|--5-----5-----5------8-----|
B|--6-x2--5-x2--6-x2--10-x2--|
G|--5-----5-----7-----10-----|
D|---------------------------|
A|---------------------------|
E|---------------------------| x4


Pre-Verse:
e|------------------------------------------------------------------|
B|------------------------------------------------------------------|
G|------------------------------------------------------------------|
D|--------7---------------7----------------------25-----------------|
A|--5--558--------7-5--558--------7-------5-3--33---------5-3---3---|
E|----------5--558----------5--558--3--336----------3--336----------| x1
    .  ...  .  ...  .  ...  .  ...  .  ...  .  ...  .  ...


Chorus: (skank chords)
e|--6-----5------8-----|
B|--6-x2--6-x2--10-x4--|
G|--7-----5-----10-----|
D|---------------------|
A|---------------------|
E|---------------------| x4


(REPEAT VERSE, PRE-VERSE, AND CHORUS)


Bridge: (skank chords)
e|--5-----5-----6------8-----|
B|--6-x4--5-x4--6-x4--10-x4--|
G|--7-----5-----7-----10-----|
D|---------------------------|
A|---------------------------|
E|---------------------------| x2


(REPEAT CHORUS)


Outro: (skank chords)
e|--5-----5-----5------8-----|
B|--6-x2--5-x2--6-x2--10-x2--|
G|--5-----5-----7-----10-----|
D|---------------------------|
A|---------------------------|
E|---------------------------| x4


************************************

| .   palm mute note
| /   slide up
| \   slide down
| h   hammer-on
| p   pull-off
| ~   vibrato
| +   harmonic
| x   Mute note
| b   Bend
| pb  Pre-bend
| br  Bend release
| pbr Pre-bend release
| brb Bend release bend

************************************

Out Of Yourself intro Tabs by Truls

 Truls - Out of yourself
Intro part guitar
~~~~~~~~~~~~~~~~~~~~~~~

E|-----6-----8-------9------11----14----13----14----(13)--|
B|-----7-----9-------9------13----14----14----14-----14---|
G|-----6-----8-------10-----13----11----11----11-----11---|
D|-----8----10--------------------11----11----11-----11---|
A|--------------------------------------------------------|
E|--------------------------------------------------------|

Found out myself by listening, so I guess it is not perfect.

Hope it helps!

~Fükee