Banana Pancakes – Jack Johnson

[RIFF 1]
A-----5-------------x-0--
E-5/7---7-5-3-0-3/5-x-0--
C-------------------x-0--
G-------------------x-2--
[RIFF 2]
A-----5-----------x-3--
E-5/7---7-5-3-0-3-x-0--
C-----------------x-0--
G-----------------x-0--
[RIFF 3]
A-----5-7-5-------x-0---
E-5/7-------7-0-5-x-0---
C-----------------x-0---
G-----------------x-2---
[RIFF 4]
A--5/7--------
E-------------
C-------------
G------5-7-5--
Intro:
[RIFF 1]                          Am
Well can't you see that it's just raining?
[RIFF 2]                  G
There ain't no need to go outside.
D7
But Baby!
Verse:
G           D7
You hardly even know this
Am            C7
when i try to show you
G                D7
Song is meant to keep you
Am                C7
from doing what you're supposed to
G            D7
wakin' up to early
Am             C7
maybe we could sleep
G               D7
make you banana pancakes
[RIFF 4] (Am)          C7
pretend like its the weekend
Am
now
Chorus:
[RIFF 2]                    G
we could pretend it all the time.
[RIFF 1]                    Am
Can't you see that its just raining.
[RIFF 2]            G
Ain't no need to go outside.
D7
But just maybe!
Verse
ch