People Help The People – Birdy

 Intro
A|----------------3-----------3------2-----3--2--|
E|------1----1------------------0--------0-------|
C|----0--------0---------------------------------|
G|--2------0--------------0-------2----2---------|
s                               s           
A|-------------------------------------3-------2----3-------------|
E|-------1----1--------------------------0---------0--------------|
C|----0--------0--------------------------------------------------|
G|--2-------0----2-------9--5---4-----------2----2-------9-5---4--|
Verse
F                               Am
God knows what is hiding in that weak and drunken heart
G         Gsus4   G
I guess you kissed the girls and made them cry 
F                      
those Hardfaced Queens of misadventure
F                                Am
God knows what is hiding in those weak and sunken eyes
G             Gsus4   G
a Fiery throng of muted angels
F                 
Giving love and getting nothing back
Chorus
F              Am
People help the people
G        
And if your homesick, 
F
give me your hand and i'll hold it
F              Am
People help the people
G        
And nothing will drag you down
Dm  C   F
Oh and if I had a brain, 
Dm  C   F
Oh and if I had a brain
Dm       C       F
i'd be cold as a stone and rich as the fool
Dm