1979 intro Tabs – Freedom Fry

  I've ever done and I was just wondering if I did it correctly, so please give some
feedback. It's only the first few lines so that's why I'm just doing it as an intro.


||TUNING : Standard (EADGBE)||



E|------2------2------2------3-|
B|-----------------------------|
G|----0------0------0------0---|
D|-----------------------------|
A|-----------------------------|
E|-3------3------3------3------|

E|-----------------------------|
B|------3------3------3------1-|
G|----0------0------0------0---|
D|-----------------------------|
A|----------------------3------|
E|-3------3------3-------------|

E|-----------------------------|
B|------1------1------1------0-|
G|----0------0------0------0---|
D|-----------------------------|
A|-3------3------3------3------|
E|-----------------------------|

E|-----------------------------|
B|------0------0------0------0-|
G|----0------0------0------0---|
D|-----------------------------|
A|-3------3------3-------------|
E|----------------------3------|

PLEASE GIVE FEEDBACK :)
(Visited 1 times, 1 visits today)

Comments are closed.