A Means To An End Tabs by Joy Division

 Hello folks! Since there wasn't a tab available, I tried to create one for you!

It's my first tab so I hope you like it. :)


Song: A Means To An End.
Artist: Joy Division.
 Closer (1980).
Guitarist: Bernard Sumner.

Guitar intro (2x):

e-----------------------------------------------------------------------------|
B-----------------------------------------------------------------------------|
G-----------------7-------------7-------------7-------------------------------|
D--5--7--5--7--5----5--7--5--7----5--7--5--7----------------------------------|
A--------------------------------------------------0------2--2--2--2--2--2--2-|
E----------------------------------------------------0----0--0--0--0--0--0--0-|

A--2--2--2--2--2--2--2-|
E--0--0--0--0--0--0--0-|

Verse ( A legacy so far improved):

e-----------------------------------------------------------------------------|
B-----------------------------------------------------------------------------|
G-----------------------------------------------------------------------------|
D-----------------------------------------------------------------------------|
A--5--5--5--5--5--5--5--5--4--4--4--4--3--3--3--3--2--2--2--2--2--2--2--2--2--|
E--3--3--3--3--3--3--3--3--2--2--2--2--1--1--1--1--0--0--0--0--0--0--0--0--0--|

A--2--2--2--2--2--2--2-|
E--0--0--0--0--0--0--0-|

e-----------------------------------------------------------------------------|
B-----------------------------------------------------------------------------|
G-----------------7-------------7-------------7-------------------------------|
D--5--7--5--7--5----5--7--5--7----5--7--5--7----------------------------------|
A--------------------------------------------------0------2--2--2--2--2--2--2-|
E----------------------------------------------------0----0--0--0--0--0--0--0-|

A--2--2--2--2--2--2--2-|
E--0--0--0--0--0--0--0-|

Chorus (I always looked to you):

e-----------------------------------------------------------------------------|
B-----------------------------------------------------------------------------|
G-----------------7-------------7-------------7-------------------------------|
D--5--7--5--7--5----5--7--5--7----5--7--5--7----------------------------------|
A--------------------------------------------------0------2--2--2--2--2--2--2-|
E----------------------------------------------------0----0--0--0--0--0--0--0-|

A--2--2--2--2--2--2--2-|
E--0--0--0--0--0--0--0-|


e-----------------------------------------------------------------------------|
B-----------------------------------------------------------------------------|
G-----------------------------------------------------------------------------|
D-----------------------------------------------------------------------------|
A--5--5--5--5--5--5--5--5--4--4--4--4--3--3--3--3--2--2--2--2--2--2--2--2--2--|
E--3--3--3--3--3--3--3--3--2--2--2--2--1--1--1--1--0--0--0--0--0--0--0--0--0--|

A--2--2--2--2--2--2--2-|
E--0--0--0--0--0--0--0-|

e-----------------------------------------------------------------------------|
B-----------------------------------------------------------------------------|
G-----------------7-------------7-------------7-------------------------------|
D--5--7--5--7--5----5--7--5--7----5--7--5--7----------------------------------|
A--------------------------------------------------0------2--2--2--2--2--2--2-|
E----------------------------------------------------0----0--0--0--0--0--0--0-|

A--2--2--2--2--2--2--2-|
E--0--0--0--0--0--0--0-|

Bridge (I put my trust in you):

e-----------------------------------------------------------------------------|
B-----------------------------------------------------------------------------|
G-----------------------------------------------------------------------------|
D-----------------------14--14--14--14--14--14--14--14--14--12--12--12--12----|
A--2--2--2--2--2--2--2--14--14--14--14--14--14--1
(Visited 1 times, 1 visits today)

Comments are closed.